Girl Repellent - Why do all the girls want andy
By:Andrew Mcshan([email protected])

Intro
(Guitar 1)                    |(Guitar 2)
e|----------------------------|--7/8-7/8--3-3-3------------------------------|
B|----------------------------|-----------------3-3-3-6-6--6-6---------------|
G|-5-----7--------------------|----------------------------------------------|
D|-5--5--7--3-----------------|----------------------------------------------|
A|-3--5--5--3-----------------|----------------------------------------------|
E|----3-----1-----------------|----------------------------------------------|
Verse
e|---------------------------------------------------------------------------|
B|---------------------------------------------------------------------------|
G|-5-----7-----5-----7-------------------------------------------------------|
D|-5--5--7--3--5--5--7---3---5-5-5-5--3-3-3-3--5-5-5-5--3-3-3-3--------------|
A|-3--5--5--3--3--5--5---3---5-5-5-5--3-3-3-3--5-5-5-5--3-3-3-3--------------|
E|----3-----1-----3------1---3-3-3-3--1-1-1-1--3-3-3-3--1-1-1-1--------------|
Chorus
e|---------------------------------------------------------------------------|
B|---------------------------------------------------------------------------|
G|--5------------------------------------------------------------------------|
D|--5---5--3--5--------------------------------------------------------------|
A|--3---5--3--5--------------------------------------------------------------|
E|------3--1--3--------------------------------------------------------------|
Solo
e|--7-7-8-8--7-8-7-8-2-2-3-2-3--3-3-2-2-3------------------------------------|
B|--8-8-8-8--8-8-8-8-3-3-3-3-3-----------------------------------------------|
G|---------------------------------------------------------------------------|
D|-------------------------------------------x4------------------------------|
A|---------------------------------------------------------------------------|
E|---------------------------------------------------------------------------|

e|-5/6-5/6-5/6-5/6-5/6----4/5-4/5-6/7-6/7-7/8-7/8--9/10-9/10-10^-------------|
B|---------------------------------------------------------------------------|
G|----------------------5----------------------------------------------------|
D|---------------------------------------------------------------------------|
A|---------------------------------------------------------------------------|
E|---------------------------------------------------------------------------|


Текст, аккорды и табулатура для песни "Why Do All The Girls Want Andy", исполняет "Girl Repellent".
Используемые в песне аккорды можно найти в разделе Как брать аккорды. Аккорды для шестиструнной гитары. Другие песни можно найти на нашем сайте, воспользовавшись алфавитным указателем вверху страницы.


 
Ошибка в тексте? Выделите ошибку и нажмите Ctrl+Enter