Girl Repellent - Goodbye Go Home
By;Andrew ([email protected])

Intro
(Guitar 1)
e|---------------------------------------------------------------------------|
B|---------------------------------------------------------------------------|
G|--------4------4-----4-----------4------------4-------4--------------------|
D|---------------------------------------------------------------------------|
A|-2-2-2----2-2-----2-----2-2--2--------2-2--------2--2----------------------|
E|---------------------------------------------------------------------------|
(Guitar 2)
e|---------------------------------------------------------------------------|
B|-4-------4----4----7-5---4----4----7-5---4----4-5--------------------------|
G|----4~~-----4---4-----------4----4----------4------------------------------|
D|---------------------------------------------------------------------------|
A|---------------------------------------------------------------------------|
E|---------------------------------------------------------------------------|
(Guitar 1)
e|---------------------------------------------------------------------------|
B|---------------------------------------------------------------------------|
G|-6-4-3-4-6-11-6-4-3-4-4--6-4-3-4-6-11-6-4-3-4-3/4/3/4----------------------|
D|-x-x-x-x-x-x--x-x-x-x-x--x-x-x-x-x-x--x-x-x-x-x-x-x-x----------------------|
A|-4-2-1-2-4-9--4-2-1-2-2--4-2-1-2-4-9--4-2-1-2-1/2/1/2----------------------|
E|---------------------------------------------------------------------------|
(Guitar 2)
e|---------------------------------------------------------------------------|
B|---------------------------------------------------------------------------|
G|-4-4-4-4-4-----------------------------------------------------------------|
D|-4-4-4-4-4-6-6-6-6-6-4-4-4-4-4-4-2-2-2-2-2---------------------------------|
A|-2-2-2-2-2-6-6-6-6-6-4-4-4-4-4-4-2-2-2-2-2---------------------------------|
E|-----------4-4-4-4-4-2-2-2-2-2-2-0-0-0-0-0---------------------------------|

Verse
e|---------------------------------------------------------------------------|
B|---------------------------------------------------------------------------|
G|-4-4-4-4-------------------------------------------------------------------|
D|-4-4-4-4--4-4-4--2-2-2-4-4-4-4---------------------------------------------|
A|-2-2-2-2--4-4-4--2-2-2-4-4-4-4---------------------------------------------|
E|----------2-2-2--0-0-0-2-2-2-2---------------------------------------------|

Pre Chorus
(Guitar 1)
e|---------------------------------------------------------------------------|
B|---------------------------------------------------------------------------|
G|---------------------------------------------------------------------------|
D|-6-6-6-6-6-6---------2-2-2-2--4-4-4----------------------------------------|
A|-6-6-6-6-6-6---------2-2-2-2--4-4-4----------------------------------------|
E|-4-4-4-4-4-4---------0-0-0-0--2-2-2----------------------------------------|
(Guitar 2)
e|---------------------------------------------------------------------------|
B|---------------------------------------------------------------------------|
G|-9-8-6-4-9-8-6-4------6-6-6-6----------------------------------------------|
D|-x-x-x-x-x-x-x-x------x-x-x-x----------------------------------------------|
A|-7-6-4-2-7-6-4-2------4-4-4-4----------------------------------------------|
E|---------------------------------------------------------------------------|
Chorus
(Guitar 1)
e|---------------------------------------------------------------------------|
B|---------------------------------------------------------------------------|
G|-4-4-4-4-4-----------------------------------------------------------------|
D|-4-4-4-4-4-6-6-6-6-6-4-4-4-4-4-4-2-2-2-2-2---------------------------------|
A|-2-2-2-2-2-6-6-6-6-6-4-4-4-4-4-4-2-2-2-2-2---------------------------------|
E|-----------4-4-4-4-4-2-2-2-2-2-2-0-0-0-0-0---------------------------------|
(Guitar 2)
e|---------------------------------------------------------------------------|
B|---------------------------------------------------------------------------|
G|-4-4-3-6--4-4-3-6--4-4-3-4-4-----------------------------------------------|
D|-x-x-x-x--x-x-x-x--x-x-x-x-x-----------------------------------------------|
A|-2-2-1-4--2-2-1-4--2-2-1-2-2-----------------------------------------------|
E|---------------------------------------------------------------------------|
Bridge
(Guitar 1)
e|---------------------------------------------------------------------------|
B|---------------------------------------------------------------------------|
G|-------4-------4--------4--------3/4/3-------------3/4--6-6-4-3-4-6-8------|
D|---------------------------------------4-------2/4-------------------------|
A|-2-2-2-----------------------------------2-2-2-----------------------------|
E|---------2-2-2---4-4-4-----0-0-0-------------------------------------------|

e|---------------------------------------------------------------------------|
B|---------------------------------------------------------------------------|
G|-9--8-6-4-6/8-6-4----4-6-4-6-8-6-8-8-8-8-9-8-9-----------------------------|
D|---------------------x-x-x-x-x-x-x-x-x-x-x-x-x-----------------------------|
A|---------------------2-4-2-4-6-4-6-6-6-6-7-6-7-----------------------------|
E|---------------------------------------------------------------------------|
(Guitar 2)
e|---------------------------------------------------------------------------|
B|---------------------------------------------------------------------------|
G|-4-------4--------4-8-4-8-4-8----------------------------------------------|
D|-4-2-6-4-4-2-6-4--x-x-x-x-x-x----------------------------------------------|
A|-2-2-6-4-2-2-6-4--2-6-2-6-2-6----------------------------------------------|
E|---0-4-2---0-4-2-----------------------------------------------------------|

e|---------------------------------------------------------------------------|
B|---------------------------------------------------------------------------|
G|-4-------------------------------------------------------------------------|
D|-4---------6---------4-----------2-----------------------------------------|
A|-2---------6---------4-----------2-----------------------------------------|
E|-----------4---------2-----------0-----------------------------------------|


Текст, аккорды и табулатура для песни "Goodbye Go Home", исполняет "Girl Repellent".
Используемые в песне аккорды можно найти в разделе Как брать аккорды. Аккорды для шестиструнной гитары. Другие песни можно найти на нашем сайте, воспользовавшись алфавитным указателем вверху страницы.


 
Ошибка в тексте? Выделите ошибку и нажмите Ctrl+Enter