Girl Repellent - 832
By:Andrew Mcshan([email protected])

Intro
(Guitar 1)
e|---------------------------------------------------------------------------|
B|---------------------------------------------------------------------------|
G|-4~~------------4-----9-4/6------------------------------------------------|
D|-4~~------------4--4--9-4/6--4---------------------------------------------|
A|-2~~------------2--4--7-2/4--4---------------------------------------------|
E|-------------------2---------2---------------------------------------------|
(Guitar 2)
e|---------------------------------------------------------------------------|
B|-0--5-4-2-7-5-4-4/5-4/5-4/5-5-4-2-0-2p0h4p0-2p0h4p0--2p0h4p0-2p0h4p0-------|
G|---------------------------------------------------------------------------|
D|---------------------------------------------------------------------------|
A|---------------------------------------------------------------------------|
E|---------------------------------------------------------------------------|

e|-----0-----0------0------0------------------------------0------0-----------|
B|-4p0--4p0----4p0----4p0-----5p7h0-5p7h0-5p7h0-5p7h0-4p0---4p0-----2p0h4p---|
G|---------------------------------------------------------------------------|
D|-------------------------------------------------------------------------x2|
A|---------------------------------------------------------------------------|
E|---------------------------------------------------------------------------|

Verse                      
e|---------------------------------------------------------------------------|
B|---------------------------------------------------------------------------|
G|-4~~-4~~-4---9-4/6---------------------------------------------------------|
D|-4~~-4~~-4-4-9-4/6--4------------------------------------------------------|
A|-2~~-2~~-2-4-7-2/4--4------------------------------------------------------|
E|-----------2--------2------------------------------------------------------|
Chorus
e|---------------------------------------------------------------------------|
B|---------------------------------------------------------------------------|
G|-4---------9---------------------------------------------------------------|
D|-4---6--4--9---------------------------------------------------------------|
A|-2---6--4--7---------------------------------------------------------------|
E|-----4--2------------------------------------------------------------------|
Solo
e|------------------------------------0----0----0----------------------------|
B|-2p0h4p0-2p0h4p0-2p0h4p0-2p0h4p0-4p0--4p0--4p0--4p0-5p7h0-5p7h0-5p7h0-5p7h0|
G|---------------------------------------------------------------------------|
D|---------------------------------------------------------------------------|
A|---------------------------------------------------------------------------|
E|---------------------------------------------------------------------------|

e|-----0------0--------------------------------------------------------------|
B|-4p0---4p0-----2p0h4p-2ph0-4ph0-5ph0-7ph0-9ph0-9-9-12-14-12-16-14-12-12----|
G|---------------------------------------------------------------------------|
D|---------------------------------------------------------------------------|
A|---------------------------------------------------------------------------|
E|---------------------------------------------------------------------------|

e|---------------------------------------------------------------------------|
B|-12-11-12-11--0-2-4-5-4-2-5-4-2-7-5-4--2p0h4p-2ph0-4ph0-5ph0-7ph0-9ph0-----|
G|---------------------------------------------------------------------------|
D|---------------------------------------------------------------------------|
A|---------------------------------------------------------------------------|
E|---------------------------------------------------------------------------|

e|---------------------------------------------------------------------------|
B|-12-14-12-12-16-14-12------------------------------------------------------|
G|---------------------------------------------------------------------------|
D|---------------------------------------------------------------------------|
A|---------------------------------------------------------------------------|
E|---------------------------------------------------------------------------|


Текст, аккорды и табулатура для песни "832", исполняет "Girl Repellent".
Используемые в песне аккорды можно найти в разделе Как брать аккорды. Аккорды для шестиструнной гитары. Другие песни можно найти на нашем сайте, воспользовавшись алфавитным указателем вверху страницы.


 
Ошибка в тексте? Выделите ошибку и нажмите Ctrl+Enter