VIENTO DEL ARENA

Capo on 5th fret.  (Lyrics are a guess.)

Note:  The chords in Viento Del Arena are from Flamenco.  Therefore I
have not named them as such.  Instead, I have referred to them as Riffs,
each to be played when cued by the lyrics.  Also, to save space the word
Riff has been shortened to and R. Don't forget that the '/' symbol
represents a beat.  Below then are the 6 riffs the song uses.


Riff 1:             ---------------------------------------------------------|
                        7--7--7--7------------------7--7--7--7---------------|
                        7--7--7--h-8-p-7----------7--7--7--h-8-p-7-----------|
                        7--7--7--7------------------7--7--7--7--7------------|
                        5--5--5--5------------------5--5--5--5--5------------|
                        -----------------------8-----------------------------|

Riff 2:             -------------------------------------------------|
                        8--8--8--8--8------x------8--8--8--8--8------|
                        8--8--8--8--8------x------8--8--8--8--8------|
                        5--5--5--5--5------x------5--5--5--5--5------|
                        6--6--6--6--6------x------6--6--6--6--6------|
                        8--8--8--8--8------x------8--8--8--8--8------|

Riff 3:             5--5--5--5--5-------------5--5--5--5--5-------------|
                        8--8--8--8--8------x------8--8--8--8--8---------|
                        8--8--8--8--8------x------8--8--8--8--8---------|
                        8--8--8--8--8------x------8--8--8--8--8---------|
                        6--6--6--6--6------x------6--6--6--6--6---------|
                        ----------------------x-------------------------|

Riff 4:             ----------------------x-------------------------|
                        6--6--6--6--6------x------6--6--6--6--6-----|
                        5--5--5--5--5------x------5--5--5--5--5-----|
                        7--7--7--7--7------x------7--7--7--7--7-----|
                        8--8--8--8--8------x------8--8--8--8--8-----|
                        8--8--8--8--8------x------8--8--8--8--8-----|

Riff 5:             ---------------------------x-------------------------------------|
                        8----8---8---8----8------x------8---8---8----8---8-----------|
                        ---------------------------x---------------------------------|
                        9----9---9---9----9------x------9---9---9----9---9-----------|
                        10--10--10--10--10-----x-----10--10--10--10--10--------------|
                        10--10--10--10--10-----x-----10--10--10--10--10--------------|

Riff 6:             6--6--6--6--6-----x-----6--6--6--6--6---------------|
                        8--8--8--8--8-----x-----8--8--8--8--8-----------|
                        7--7--7--7--7-----x-----7--7--7--7--7-----------|
                        5--5--5--5--5-----x-----5--5--5--5--5-----------|
                        5--5--5--5--5-----x-----5--5--5--5--5-----------|
                        ------------------------------------------------|


Intro: (play 4 times)


---------------------------------------------------|
--------------------------------------------7------|
-----7-h-8-p-7-7-h-8-p-7-p-5-h-7-------------------|
---------------------------------------------------|
5 (let ring) --------------------------------------|
---------------------------------------------------|

R1 w/intro


R1
Ai-li-li-li-li-li


Ai-li-li-li-li-li

                         R2
Ai-li-li-li-li-li-li

             R3         R1
Ey-ey-ey-ey-ey-ey

R1                  R2        R1      R2
Dimelo partir y ir al la-teli

R3                 R1
Dimelo dilalo

R4
Latira wamalacali


Latira wamalacali


Mashimela lacali

R5
Maqui enestado wamacali

      R2                R3    R1
Maqui enestado wamacali

R4
Latira wamalacali


Latira wamalacali


Mashimela lacali

R5
Maqui enestado wamacali

      R4                 R3    R1
Maqui enestado wamacali

R4
Oh

        R1                               R2
Oh oh oh oh oh oh oh oh oh

    R3  R1
Aiya

Chords for solo:

R1 / / /
R2 / / /
R1 / / /
R2 / / /
R1 / / /


R1
Ai-li-li-li-li-li


Li-li-li-li-li-li

               R6        R2
Lai lai lai lai lai lai lai

             R3         R1
Ey-ey-ey-ey-ey-ey

R4           R6
Vida vida

R4           R6
Vida vida

R4     R3     R1
Ah   ah     ah

R4           R6
Vida vida

R4           R6
Vida vida

R4     R3     R1
Ah   ah     ah

R4
Latira wamalacali


Latira wamalacali


Mashimela lacali

R5
Maqui enestado wamacali

      R2                 R3    R1
Maqui enestado wamacali

Outro:  (play 6 times)

                   R2
La-lai-lai-lai-lai-la-la

                   R1
La-lai-lai-lai-lai-la-la


--------------------------------------------------------------------------------
(Music and lyrics transcribed by Kelly Wing, MN, USA)


Текст, аккорды и табулатура для песни "Viento Del Arena", исполняет "Gipsy Kings".
Используемые в песне аккорды можно найти в разделе Как брать аккорды. Аккорды для шестиструнной гитары. Другие песни можно найти на нашем сайте, воспользовавшись алфавитным указателем вверху страницы.


 
Ошибка в тексте? Выделите ошибку и нажмите Ctrl+Enter