"Somos gitanos"

[Соло 1]
  Em7                                       Dsus4                D
||-10-7-7-----------------|-10-7-7---------|-----------------------|
||--------10-10-8p7-------|--------10-10-8-|-13-10-10--------------|
||------------------9p7h9-|----------------|----------12-12-12p11-9|
||------------------------|----------------|-----------------------|
||------------------------|----------------|-----------------------|
||------------------------|----------------|-----------------------|

 Dsus4                      D       C11+
|------------------------------|-----------------------------|
|-13-10-10---------------------|-12--------------------------|
|----------12-12-12p11-9-12p11-|----12-12-11-11-11p9----11-9-|
|------------------------------|---------------------12------|
|------------------------------|-----------------------------|
|------------------------------|-----------------------------|

                [конец соло 1] [соло 2]                [конец соло 2]
                            B7
|--------------|--------------|------------------------------------||
|--------------|--------------|---5-4-------5----7p5-5p4---5p4-----||
|-4-5p4h5-{7-7-|-{7-5-8-7p54-|-4-------5p4----7---------5-----5p4-||
|---------}8---|-}8-----------|------------------------------------||
|---------{7---|-{7-----------|------------------------------------||
|---------.8---|-.8-----------|------------------------------------||


(B7)    G
  Yo me siento tan alegre

Yo me siento tan alegre
     B7               Em
Y de pensar en lo que yo
      A7      Dsus4
En la vida me dan.

       C                B7
Son lo hecho mi dicha entera
                      Em
Son lo que llega a mн pena
       C                B7
Son lo hecho me dicha entera
                      Em
Son lo que llega a mн pena
      Em           A7 
En la vida a mн me dan
      Em             B7
En la vida que mн me dan 
      Em           A7 
En la vida a mн me dan
      Em          B7
En l’amor a mi me dan
        C  B7
Somos gita - nos.



        Em
Somos gitanos

Tengo mi familia
      D
Yo la quiero

Ellos primero
           C
Para ellos canto
                          B7
Tengo la vida que a mн me dan.
   (2раза повторить припев)


(B7)
  Porque tengo una familia 
                C7
Tocaron algunas niсаs 
                   D7
Y una mujer que me quiere 
                    C7   B7
Yo los quiero de verdad___


      Em           B7
En la vida a mн me dan
      Em            A7 
En l’amor que mн me dan 
      Em           B7 
En la vida a mн me dan
      Em          A7
En l’amor a mi me dan
        C  B7
Somos gita - nos.
	
	
	        
Комментарий автора: Примечание: соло играется довольно быстро, стилем пикадо! Все аккорды на барре!

Текст, аккорды и табулатура для песни "Somos gitanos", исполняет "Gipsy Kings".
Используемые в песне аккорды можно найти в разделе Как брать аккорды. Аккорды для шестиструнной гитары. Другие песни можно найти на нашем сайте, воспользовавшись алфавитным указателем вверху страницы.


 
Ошибка в тексте? Выделите ошибку и нажмите Ctrl+Enter