Band : Gipsy Kings
Song : Inspiration

Added By Mikhailo
________________________________________

Capo 2

Intro:

Em(add9)                 Em+5(add9)
|-----------|-----------|-----------|-----------|
|---------0-|---------0-|---------0-|---------0-|
|-------0---|-------0---|-------0---|-------0---|
|-----4-----|-----4-----|-----4-----|-----4-----|
|---2-------|---2-------|---3-------|---3-------|
|-0---------|-0---------|-0---------|-0---------|

 Am9(add6)               Bm+5       Gmaj7 Em(add9)/F#
|-----------|-----------|-----------|---------------|
|---------0-|---------0-|---------0-|-------------0-|
|-------0---|-------0---|-------0---|-----------0---|
|-----4-----|-----4-----|-----4-----|-----4-(4)-----|
|---3-------|---3-------|---5-------|---5-----------|
|-5---------|-5---------|-7---------|-3------2------|

Part I:

 Em                                         F#7
|---3---3-|-----3-----3---|----3-----3-----|-2---2-----2---|----2-------2---|
|-----7---|-0-----7-----0-|(0)---7-----7-5-|---5---------5-|(5)-----------5-|
|---------|---------------|----------------|-------3-------|--------3-------|
|---------|---------------|----------------|---------------|----------------|
|---------|---------------|----------------|---------------|----------------|
|---------|---------------|----------------|---------------|----------------|

 Am7                                B7
|-0---0-----0---|----0-------0---0-|-2---2-----2---|----2-------2---2-|
|---4---------4-|(4)-----------4---|---5---0-----5-|(5)-----0-----5---|
|-------2-------|--------2---------|---------------|------------------|
|---------------|------------------|---------------|------------------|
|---------------|------------------|---------------|------------------|
|---------------|------------------|---------------|------------------|

 Em                                 F#7                     Am7
|-3---3-----3---|----3-------3-----|-2---2---------|-------|-0---0-----0---|
|---7---0-----7-|(7)-----0-----7p5-|---5-------2---|-------|---4---------4-|
|---------------|------------------|-------4-----3-|(3)----|-------2-------|
|---------------|------------------|---------------|-------|---------------|
|---------------|------------------|---------------|-------|---------------|
|---------------|------------------|---------------|-------|---------------|

                    B7                                 Em      Em(add9)
|----0-------0---0-|-2---2-----2---|----2-------2---2-|(2)-0---.0---|-------|
|(4)-----------4---|---5---0-----5-|(5)-----0-----5---|--------{0---|-------|
|--------2---------|---------------|------------------|--------}0---|-------|
|------------------|---------------|------------------|--------{4---|-------|
|------------------|---------------|------------------|--------}2---|-------|
|------------------|---------------|------------------|--------{0---|-------|

Part II:

(Em(add9) / / /)
Am7 / / /
D7 / / /
Gmaj7 / / /
Cmaj7b5 Cmaj7 / / /
Am7 / / /
B7 / / /
Em / / /
Am7 / / /
D7 / / /
Gmaj7 / / /
Cmaj7b5 Cmaj7 / / /
Am7 / / /
B7b9 / / /
Em / / /
Am(add9) / / /
Am / / /
D / / /
D7 / / /
Gmaj7 / / /
Cmaj7 C6 / / /
C / / /
Am7 / / /
B7 / / /
Em(add9) / / /

Part III:

 Em                                         F#7
|---3---3-|-----3-----3---|----3-----3-----|-2---2-----2---|----2-------2---|
|-----7---|-0-----7-----0-|(0)---7-----7-5-|---5---------5-|(5)-----------5-|
|---------|---------------|----------------|-------3-------|--------3-------|
|---------|---------------|----------------|---------------|----------------|
|---------|---------------|----------------|---------------|----------------|
|---------|---------------|----------------|---------------|----------------|

 Am7                                B7
|-0---0-----0---|----0-------0---0-|-2---2-----2---|----2-------2---2-|
|---4---------4-|(4)-----------4---|---5---0-----5-|(5)-----0-----5---|
|-------2-------|--------2---------|---------------|------------------|
|---------------|------------------|---------------|------------------|
|---------------|------------------|---------------|------------------|
|---------------|------------------|---------------|------------------|

 Em                                 F#7                     Am7
|-3---3-----3---|----3-------3-----|-2---2---------|-------|-0---0-----0---|
|---7---0-----7-|(7)-----0-----7p5-|---5-------2---|-------|---4---------4-|
|---------------|------------------|-------4-----3-|(3)----|-------2-------|
|---------------|------------------|---------------|-------|---------------|
|---------------|------------------|---------------|-------|---------------|
|---------------|------------------|---------------|-------|---------------|

                    B7                                 Em
|----0-------0---0-|-2---2-----2---|----2-------2---2-|----.0---|-------|
|(4)-----------4---|---5---0-----5-|(5)-----0-----5---|----{0---|-------|
|--------2---------|---------------|------------------|----}0---|-------|
|------------------|---------------|------------------|----{4---|-------|
|------------------|---------------|------------------|----}2---|-------|
|------------------|---------------|------------------|-0-------|-------|

Part IV:

(Em / / /)
Am7 / / /
D9 / / /
Gmaj7 / / /
Cmaj7 / / /
Am7 / / /
B7 / / /
Em+5 Em / / /
Am7 / / /
D7 / / /
G6 / / /
Gmaj7 / / /
Cmaj7 / / /
Am7 / / /
B7 / / /
Em / / /
Am7 / / /
D7 / / /
Gmaj7 / / /
Cmaj7 / / /
Am / / /
B7 / / /
Em / / /
Am7 / / /
D7 / / /
Gmaj7 / / /
Cmaj7 / / /
Am7 / / /
B7 / / /
Em / / /

End:
(Em)           Am  Am7   D7sus4 D7             G6  Gsus4(add9)
|-----3p2p0---|-0---3-3-3---3-|-2-----2p0-----|-0----8--8--8----8-|
|---0-------4-|-----1-1-1---1-|-1---1-----3p1-|-3---10-10-10---10-|
|-------------|-----0-0-0---2-|-2-------------|-0----7--7--7----7-|
|-------------|-----2-2-2---0-|-0-------------|-0-----------------|
|-------------|-----0---------|---------------|-2-----------------|
|-------------|---------------|---------------|-3-----------------|

 Cmaj7           Am7       B7sus4 B7           Em
|-7-------------|---------------|-------------|------|
|-8---0-5p3-----|-5---5-5-5---7-|-7---0h1p0---|-0----|
|-9---------5p4-|-5---5-5-5---9-|-8---------2-|------|
|---------------|-5-----------7-|-7-----------|------|
|---------------|-0-------------|-------------|------|
|---------------|---------------|-------------|------|

(Em)           Am  Am7   D7sus4 D7             G6  Gsus4(add9)
|-----3p2p0---|-0---3-3-3---3-|-2-----2p0-----|-0----8--8--8----8-|
|---0-------4-|-----1-1-1---1-|-1---1-----3p1-|-3---10-10-10---10-|
|-------------|-----0-0-0---2-|-2-------------|-0----7--7--7----7-|
|-------------|-----2-2-2---0-|-0-------------|-0-----------------|
|-------------|-----0---------|---------------|-2-----------------|
|-------------|---------------|---------------|-3-----------------|

 Cmaj7           Am7       B7sus4 B7           Em(add9) Em6(add9)
|-7-------------|---------------|-------------|-----.2--.2-.2--.2-|-.2----|
|-8---0-5p3-----|-5---5-5-5---7-|-7---0h1p0---|-0---{0--{2-{2--{2-|-{2----|
|-9---------5p4-|-5---5-5-5---9-|-8---------2-|-----}0--}0-}0--}0-|-}0----|
|---------------|-5-----------7-|-7-----------|-----{2--{2-{2--{2-|-{2----|
|---------------|-0-------------|-------------|-----}2--}2-}2--}2-|-}2----|
|---------------|---------------|-------------|-----{0--{0-{0--{0-|-{0----|


Текст, аккорды и табулатура для песни "Inspiration", исполняет "Gipsy Kings".
Используемые в песне аккорды можно найти в разделе Как брать аккорды. Аккорды для шестиструнной гитары. Другие песни можно найти на нашем сайте, воспользовавшись алфавитным указателем вверху страницы.


 
Ошибка в тексте? Выделите ошибку и нажмите Ctrl+Enter