Band : Gipsy Kings
Song : Allegria

Added By Mikhailo
________________________________________

Intro:

 A              F#m          Bm           E7               A   F#m
                                                          [keyboard....]
|-4-0---------0-4-0---|-----0---2-----0-2-5-5-4-0-5-4-2-2-|------------|
|-----2---2-3-------2-|-2-3---3-----3---------------------|------------|
|---------------------|-----------------------------------|------------|
|---------------------|-----------------------------------|------------|
|---------------------|-----------------------------------|------------|
|---------------------|-----------------------------------|------------|

Verse
Bm                             E7                   A
|-----9-7----------------------------|----------7-9-10-10-9-...
|---7-----10-9-7---------------5-5-5-|---7-9-10-------------...
|-9--------------9-7-----------7-7-7-|-9--------------------...
|--------------------9-7-6---6-6-6-6-|----------------------...
|--------------------------9---7-7-7-|----------------------...
|------------------------------------|----------------------...
              F#m               Bm               E7
...-----12-10----------|--------------------------------------------|
...--10-------12-12p10-|-9----9-10-9/10-------10-10-9/10-9-7/9------|
...--------------------|---11--------------11------------------11-9-|
...--------------------|--------------------------------------------|
...--------------------|--------------------------------------------|
...--------------------|--------------------------------------------|
               A                 F#m
                                 /-3-   /-3-
|----------7-9-10-9------------7-9-9-9-7-9-9-9-------|
|---7-9-10--------------7h9h10-----------------10-10-|
|-9-------------------9------------------------------|
|----------------------------------------------------|
|----------------------------------------------------|
|----------------------------------------------------|
          Bm                  E7
|----------------------------------------10-9-9---------------|
|-10-9----------10-10-10---10----9h10-----------12-12-10-10-9-|
|------12/13-11---------------11------11----------------------|
|-------------------------------------------------------------|
|-------------------------------------------------------------|
|-------------------------------------------------------------|
     A                     F#m           Bm
|----9---------------------9---------|-------------------------...
|-10---12-10p9-----9-10-12---12-10-9-|-9-10-10-9/10p9----------...
|----------------9-------------------|----------------11-11-11-...
|------------------------------------|-------------------------...
|------------------------------------|-------------------------...
|------------------------------------|-------------------------...
               E7                 A                F#m
                                           /-3-
...-----------------------------|----------------------|
...----9-10-10/12-10-9-9-9------|-5-5-5-5----------7-5-|
...-11---------------------11-9-|----------6-6-6-7-----|
...-----------------------------|----------------------|
...-----------------------------|----------------------|
...-----------------------------|----------------------|
      Bm                  E7                           A
|--------------------------------|-------------------------------...
|-----7-5-5----------------------|-------------5-7-7-7-7-7p5-5-5-...
|-6-7-------7-7-6-6-4-4----------|-------4-6-7-------------------...
|-----------------------7-7p6-4-4--4-6-7-------------------------...
|--------------------------------|-------------------------------...
|--------------------------------|-------------------------------...
           F#m                              Bm
...-----------------------------------4-5-7-9-9----------------|
...5h7-7-7-7p5---5----------------5-7-------|---10-10-7/9-9----|
...------------7----7p6-4---4-6-7-----------|---------------11-|
...-----------------------7-----------------|------------------|
...-----------------------------------------|------------------|
...-----------------------------------------|------------------|
        E7                        A                              F#m
|--------------------------------|--------------9----------------9-|
|-12-12-12p10--10-10p9-9---------|------9-10-12----------9-10-12---|
|------------------------11-11-9-|-9-11-------------9-11-----------|
|--------------------------------|---------------------------------|
|--------------------------------|---------------------------------|
|--------------------------------|---------------------------------|
                      Bm                        E7
                                                   /-3-
|--------------9----9-----------------------------------------...
|------9-10-12---12---10-10---------------------10-12-12-12-9-...
|-9-11----------------------11-11-----------------------------...
|---------------------------------12-12-(12)-----------------...
|-------------------------------------------------------------...
|-------------------------------------------------------------...

                                                [rep. Intro][keyboard (2x)]
   /--3--     /-3-    /-3-   /-3- /-3-                 A  F#m  Bm  E7
...---------------------------------------------|----------|--------------|
...10-10-10----9-9-9----------------------------|----------|--------------|
...---------11--------6-7-7-7-6-7-7-7-----------|----------|--------------|
...-----------------------------------9-9-9p7-7-|----------|--------------|
...---------------------------------------------|----------|--------------|
...---------------------------------------------|----------|--------------|
 A                                    F#m
[simplified................................................................
|-9p7----7-9p7----7-9p7----7-9p7----7-9p7----7-9p7----7-9p7----7-9p7----7--
|-----10-------10-------10-------10-------10-------10-------10-------10---|
|-------------------------------------------------------------------------|
|-------------------------------------------------------------------------|
|-------------------------------------------------------------------------|
|-------------------------------------------------------------------------|
 Bm                       E7
...............................................................]
-9-9-9------------------9-10p9--9-12-10-9----------------------|
|------10-10----9-10-12---------------------12-10-9------------|
|------------11-------------------------------------11p9p8h9-9-|
|--------------------------------------------------------------|
|--------------------------------------------------------------|
|--------------------------------------------------------------|
     A             F#m            Bm      E7
|----9--9---9-10-9--9--9-|-9-10-9-10-10---10-10-10-10-10-|
|---10-10----------10-10-|--------12-12---12-12-12-12-12-|
|-9----------------------|-------------------------------|
|------------------------|-------------------------------|
|------------------------|-------------------------------|
|------------------------|-------------------------------|
 A                     F#m                     Bm
|-9------------------9-9---------------|-------9-9----------9------9-...
|---10--9-10-9-10-12-----10--9-10-9-10-|-10-12-----10--9-10---9-10---...
|--------------------------------------|-----------------------------...
|--------------------------------------|-----------------------------...
|--------------------------------------|-----------------------------...
|--------------------------------------|-----------------------------...
        E7                                   A                 F#m
...-----10-9---------------------------------|-----------------------|
...-9-9------12-10-9-------------------------|-----------------------|
...------------------11-9--------------------9-9-9-9--------11-9-9-9-|
...-----------------------12-11p9----9-11-12-|--------11-12----------|
...-------------------------------12---------|-----------------------|
...------------------------------------------|-----------------------|
        Bm                 E7
|----------------------------------------------------|
|------------------------------------------------7-7--
|-------11-9-------------------------------6-7-9-----|
|-11-12------12-12-11-11---7/9-7-6---6-7-9-----------|
|----------------------------------9-----------------|
|----------------------------------------------------|
A          F#m                                Bm
|------5---------------------------------------------------...
9-9--9-------------9------10------9------10------9------10-...
|-------------9-11---9-11----9-11---9-11----9-11---9-11----...
|----------11----------------------------------------------...
|----------------------------------------------------------...
|----------------------------------------------------------...
                E7
...--------------------------------------------9-10-9----9----------|
...------9------10------9------10-9----9-10-12--------12---12-10-10-|
...-9-11---9-11----9-11---9-11------11------------------------------|
...-----------------------------------------------------------------|
...-----------------------------------------------------------------|
...-----------------------------------------------------------------|

End:
 A          F#m            Bm            E7
|-16-----0-5-4-0---|-----0---0-2-----0-2-5-5-4-0-5-4-2-2-|
|------3---------2-|-2-3---3-------3---------------------|
|------------------|-------------------------------------|
|------------------|-------------------------------------|
|------------------|-------------------------------------|
|------------------|-------------------------------------|
  A               F#            Bm          E7  A
|-4-0-------0-2-5-4-0---|-----0---0-2---0-2-2-|-{5-{5-{5-.5-{5-|
|-----2---3-----------2-|-2-3---3-----3-------|-}5-}5-}5-{5-}5-|
|-----------------------|---------------------|-{6-{6-{6-}6-{6-|
|-----------------------|---------------------|-}7-}7-}7-{7-}7-|
|-----------------------|---------------------|-{7-{7-{7-}7-{7-|
|-----------------------|---------------------|-.5-.5-.5-{5-.5-|


Текст, аккорды и табулатура для песни "Allegria", исполняет "Gipsy Kings".
Используемые в песне аккорды можно найти в разделе Как брать аккорды. Аккорды для шестиструнной гитары. Другие песни можно найти на нашем сайте, воспользовавшись алфавитным указателем вверху страницы.


 
Ошибка в тексте? Выделите ошибку и нажмите Ctrl+Enter