artist:ghoti hook
song:i love rock and roll
album:songs we didn't write
tabber:david grimes

this is the best song by ghoti hook. and easy to play.

(intro) 1st part
E-----------------------------------------------------
B-----------------------------------------------------
G-7-7---7-7-------------------------------------------
D-7-7---7-7--3--5-5--7-7--3---------------------------
A-5-5---5-5--3--5-5--7-7--3---------------------------
E------------1--3-3--5-5--1---------------------------

 2nd part
E----------------------------------------------------------------
B----------------------------------------------------------------
G-7-7---7-7------------------7-7-x-x-x-x-7-7-x-x-x-x-7p5---------
D-7-7---7-7--3--5-5--7-7--3--7-7-x-x-x-x-7-7-x-x-x-x----7-5------
A-5-5---5-5--3--5-5--7-7--3--5-5-x-x-x-x-5-5-x-x-x-x-------8-----
E------------1--3-3--5-5--1--------------------------------------

(verse) add the muted strings in between
E----------------------------------------------------------------
B----------------------------------------------------------------
G-7-7---7-7---7-7---7p5-------7-7---7-7--------7p5---------------
D-7-7---7-7---7-7------7-5----7-7---7-7---7-7-----7-5------------
A-5-5---5-5---5-5---------8---5-5---5-5---7-7--------8-----------
E-----------------------------------------5-5--------------------

E----------------------------------------------------------------
B----------------------------------------------------------------
G-------------7-7------------------------------------------------
D-5-5---7-7---7-7---5~~~~----------------------------------------
A-5-5---7-7---5-5---5~~~~----------------------------------------
E-3-3---5-5---------3~~~~----------------------------------------

1st chorus same as 1st part of intro

2nd chorus
E----------------------------------------------------------------
B----------------------------------------------------------------
G-7--7-7-7--7-7-7--7-7-7-----------------------------------------
D-7--7-7-7--7-7-7--7-7-7--3--3-3-3--3-3-3--3-3-3--5--5-5-5-------
A-5--5-5-5--5-5-5--5-5-5--3--3-3-3--3-3-3--3-3-3--5--5-5-5-------
E-------------------------1--1-1-1--1-1-1--1-1-1--3--3-3-3-------

this aint 100% but its close enough. please correct it if you can.


Текст, аккорды и табулатура для песни "I Love Rock And Roll", исполняет "Ghoti Hook".
Используемые в песне аккорды можно найти в разделе Как брать аккорды. Аккорды для шестиструнной гитары. Другие песни можно найти на нашем сайте, воспользовавшись алфавитным указателем вверху страницы.


 
Ошибка в тексте? Выделите ошибку и нажмите Ctrl+Enter