Intro(вступление)
(1)
-----------------------------------------------
17b-15--------------17-15b~~15b----------------
------17-16--14----------------17-16-14--------
---------------17-15b------------------17-15-14
|-12/------------------------------------------------------
|----12/-8/------------------------------------------------
(2)
-----------------------------------------------
|-13h15p13b------------------------------------------------
|----------14-16-17b-16-14-----------16h17p16~-16-14-13----
--------------17-15-14---------------------15--
----------------------17-----------------------
-----------------------------------------------
(3) intro ended!!!            [     к у п л е т     ]
-----------------------------------------------
-----------------------------Здесь можно играть
---------------------------/-простую гамму-----
|-14-----------------------------------/--только-----------
|---17-15/-----12/---------------------/---------в---------
------12/---8/-------------/-----------ноты !!!
 [продолжение после куплета]
-----------------------------------------------
|-14-15-17-20b---20b--18b--18b/-12-13-15b-18b--18b--17b-17b/
-----------------------------------------------
-----------------------------------------------
-----------------------------------------------
-----------------------------------------------

-----------------------------------------------
|----12-13--17b--17b-15b-15b----------12--15b-15b~~~~~-----
|-14----------------------------13-14----------------------
-----------------------------------------------
-----------------------------------------------
-----------------------------------------------
                  Быстрого соло!
      
-----------------------------------------------
|-12-12-13-12-10-12-10--10---------------------------------
----------12--12-10-12-10--12-10--10-----------
-------------------------12-----12--12-10-12-10
|---в этом куске не уверен---------------------------------
-----------------------------------------------
          [      к у п л е т      ]  
-----------------------------------------------
-----------------------------------------------
-------------------[improvise]-----------------
|---10-----------------------------------------------------
|-12--12-10-12---------------------------------------------
-----------------------------------------------
              [ Эту ноту нужно тянуть примерно 31 секунду ]
-----------------------------------------------
|--[pause]---17bpbpbpbpbpbp~~~~~~~bpbpbpbpbpbpb~~~~bbbbbbbb
-----------------------------------------------
|----------[можно попытаться болтать струну----------------
---вверх вниз!!!]------------------------------
-----------------------------------------------

--------------------12-13----------------------
---15b-------------------14-(13h14-14b-14b-15b)
|---------//----17-16-14--------------[В скобках Т.к. я--
|---------//------------17-15-----------не-уверен-в------
|---------//-------------------/-----правильности-подбора]
|---------//-------------------/-------------------------

-----------------------------------------------
|-15~~-13---------15h17----------------------------12h13p13
|--------16-14---------17~~-14-16-17-16-14-12--------------
--17-15--------14---------------15h14-12-------
-----------------------------------------------
-----------------------------------------------

-----------------------------------------------
-----12----------------5----------12-----------
|13-14------12h14--12-----------5h7-5----12h14--12---------
----------14pb~pb--------7p------------14/17/14
-----------------------------------------------
-----------------------------------------------

--дальше идет непереводимая игра...!-----------
|-----5----------------------------------------------------
|-5h7--5------------[improvise like Gary Moore]------------
|-------7r-------------------------------------------------
-----------------------------------------------
-----------------------------------------------


Текст, аккорды и табулатура для песни "Parisienne Walkways", исполняет "Gary Moore".
Используемые в песне аккорды можно найти в разделе Как брать аккорды. Аккорды для шестиструнной гитары. Другие песни можно найти на нашем сайте, воспользовавшись алфавитным указателем вверху страницы.


Слушать онлайн Parisienne Walkways


Gary MooreParisienne Walkways на Яндекс.Музыке


 
Ошибка в тексте? Выделите ошибку и нажмите Ctrl+Enter