TYPE: Bass tab
BAND: Garbage
ALBUM: Garbage
SONG: Only happy when it rains
PERSON WHO WROTE THEM DOWN FROM EAR: Paul Simpson ([email protected])

Tuning is E, A, D, G (standard) I only wrote down the A and E strings because the others aren't used.
/ = Slide up
 = Slide down

I'm pretty sure this is 100% correct but there could be a few minor mistakes in the fast bits.
The verses are played really fast, there are no quiet bits between each line but I wrote each line separately to make it clearer.
I also wrote the lyrics in aswell so you don't get lost.

A-------2--------2-----------
E--4------4-2-4---2-2-2-2-

A------------------2-4-4-4
E--/4-0-0-0-2-4----------

A-----------2---------
E--0-0-0-0----0--2-2-2

A--------------2---------------
E--/4-4-4-4--4---4--2-2-2-2-2

A----------------------
E--/4-0-0-0-0-0-0-0-0

A----2--4-4-4-4-4-----------2-----------
E--4----------------0-0-0-0----0-2-2-2-2


A---2-2-2-2-2-2
E------------------

A--4-4-4-4-4-4-4----------------0-0-0-0-0-0-2-2-2-2-2-2-2-4-4-4
E------------------4-4-4-4-4-4---------------------------------------

A--4-4-4-4-4-4------------------0-0-0-0-0-2-2-2-2-2-2-2----------
E-----------------4-4-4-4-4-4-4-------------------------2-2-2-2

A----2----------2-----------
E--4----4-2-4------2-2-2-2

A---------------------2-4-4-4
E--/4-0-0-0-0-2-4----------

A----------2-----------
E--0-0-0-----0-2-2-2

A-2-2-2-2-2-2-2
E------------------

This bit has no words but it's the same as pour your misery down.
A---4-4-4-4-----------0-0-0-0--2-2-2-2-2-
E-------------4-4-4-4------------------------      (play this twice)

A----2--------2----------
E--4---4-2-4---2-2-2-2



A-------------------2-4-4-4-4-4--2---
E--/4-0-0-0--2-4-----------------4-2

A-----------2-4-------------- 
E-0-0-0-2-------0--2-2-2-2

A-------------2-4-------------
E--/4-4-4--4------4-2-2-2-2----

A----------------------2-4-4-4-4
E-/4-0-0-0-0-0-2-4------------

A-------------2------------
E--0-0-0-0--2---0-2-2-2-2

A---2-2-2-2-2-
E----------------

A--4-4-4-4-4-4-4---------------0-0-0-0-0-0--2-2-2-2-2-2-4-4-4-4
E-------------------4-4-4-4-4-4-----------------------------------------    (play 3 times)

A--4-4-4-4-4-----------------------0-0-0-0-0-0-0-0-0-0-0-0-0-0-0-2-2-2-2-2-2-2---------
E---------------4-4-4-4-4-4-4-4----------------------------------------------------------2-2-2-2

A------2--------2----------
E---4-----4-2-4---2-2-2-2




A-----------------2-4-4-4-4
E--/4-0-0-0--2-4--------------



A-----------2---------
E--0-0-0----0-2-2-2

A------------------------------------------------------2-4-4-4-4-4-4
E--4----4-----4-----4-----4------0-0-0-0-0-0-2-4-----------------
       (now play this until end of song)

The verses are really fast and hard to play but the pour your misery down bits are quite easy.
The bass line for this song is so complex that you might not even need to play along with your CD, anyone could recognize it just being played alone. If you're struggling to get the timing right, play along with your CD a few times and you'll get the hang of it.
Alrighty then, any comments, suggestions, corrections (hopefully not), anything except junk mail, contact me:   
[email protected] 




Текст, аккорды и табулатура для песни "Only Happy When It Rains", исполняет "Garbage".
Используемые в песне аккорды можно найти в разделе Как брать аккорды. Аккорды для шестиструнной гитары. Другие песни можно найти на нашем сайте, воспользовавшись алфавитным указателем вверху страницы.


 
Ошибка в тексте? Выделите ошибку и нажмите Ctrl+Enter