BassTab:

Artist: Garbage
Album: Garbage
Track: 12 - Milk
Tab by: Paul Simpson ([email protected])

Alright, this is a pretty easy song to play, it's all in the key of
E minor but i think it sounds better when played in the 2nd position
instead of the open position which is how E minor is usually played.
I'm lazy so i only write down the strings that are used in each line.


KEY:
/ = slide up
 = slide down


Alright, intro:

D--------------------------------------12/14--------
A----------------------------------------------------
E-0----0-0------0------0-0---0---0-0-----------------    e.t.c

Verse 1:

E----5----5-5-3-0-0-0-------5----5-5-3-0-0-0-------5-----5-5-3-0-0-0-


E---5-----5-5-3-0-5-5------

(Play this twice for verse 1, but only once for verses 2 & 3)

Chorus 1:

A----------------3-3---3-2-----------------------------
E------5---0-3-5-----------5-3-2-2---2-2---2---2-2----

A----------------3-3--3-3---2-2-2---3--3-2---------
E--5---5---0-3-5---------------------------5-3-0-0-

A---------------------------
E--0-0----0-0--0----0-0---0-

Then play verse once

Chorus 2:

A----------------------------3-3---3-2-----------------------------
E---5-5-3-0-5-5----5---0-3-5-----------5-3-2-2---2-2---2---2-2----

A-----------------3-3---3-2-----------------------------
E---5---5---0-3-5-----------5-3-2-2---2-2---2---2-2----

A----------------3-3---3-2-----------------------------
E--5---5---0-3-5-----------5-3-0-0--0---0-0---0---0-0--


Then play verse once more

Chorus 3:

A----------------------------3-3---3-2-----------------------------
E---5-5-3-0-5-5----5---0-3-5-----------5-3-0-0--0---0-0---0---0-0--

A-------------------3-3---3-2-----------------------------
E----5----5---0-3-5-----------5-3-0-0--0---0-0---0---0-0--

A--------------------3-3---3-2-----------------------------
E----5----5---0-3-5-----------5-3-0-0--0---0-0---0---0-0--

A-------------------3-3---3-2-----------------------------
E----5----5---0-3-5-----------5-3-0-0--0---0-0---0---0-0--

Outro:

E--0----0----0-0-----0----0-0-----0-----0-0-----0----0-0    e.t.c.

Alright that's it.

If you want to contact me, my e-mail address is
[email protected]

So yeah, see ya later   :-)


Текст, аккорды и табулатура для песни "Milk", исполняет "Garbage".
Используемые в песне аккорды можно найти в разделе Как брать аккорды. Аккорды для шестиструнной гитары. Другие песни можно найти на нашем сайте, воспользовавшись алфавитным указателем вверху страницы.


 
Ошибка в тексте? Выделите ошибку и нажмите Ctrl+Enter