-------------------------------------------------------------------------------
			     I THINK IґM PARANOID - Garbage
-------------------------------------------------------------------------------

by: luigi_cix

This is a cool song, is not that dificult to play... 
Verse

e|--7-----------|----------|
B|-8--8-10------|-8-----10-|
G|---------10-7-|---7-10---|
D|--------------|----------|
A|--------------|----------|
E|--------------|----------| x5


Chorus

  W/ distortion  
e|----------|--------------|
B|----------|---x---x-x----|
G|--x---x-x-|-x-8---8-5----|
D|--5---5-3-|-3-8---8-5----|
A|--5---5-3-|-3-6---6-3----|
E|--3---3-1-|-1------------| x4

e|-----------|----------|---------|
B|---10---11-|----10—11-|--10-11--|
G|-8---------|--8-------|-8-------|
D|-----------|----------|---------|
A|-----------|----------|---------|
E|-----------|----------|---------|

Chorus 2nd part
e|---------------------|----------------------------------|
B|---------------------|----------------------------------|
G|---------------------|9--9--9--9--9--9-9--9—9—9—9—9--9-9|
D|-5--5-53--3-3/8--8-8|-x------------------x-------------|
A|-5--5-53--3-3/8--8-8|-7------------------7-------------|
E|-3--3-31--1-1/6--6-6|----------------------------------|

e|---------------------|------------------|---------------|
B|---------------------|------------------|---------------|
G|--------------------|-7-7--7--7--7--7-7-|-7—7—7—7—7--7-7|
D|-5--5-53--3-3/8--8-8|-x----------------|--x------------|
A|-5--5-53--3-3/8--8-8|-5----------------|--5------------|
E|-3--3-31--1-1/6--6-6|----------------------------------|



Solo 1
e|-----------------|-------------|
B|-----------------|-------------|
G|--12h14*(15)--14-|-14*(15)-12--|
D|-----------------|-------------|
A|-----------------|-------------|
E|-----------------|-------------| x4

Interlude 
e|--------|------|-------|--------|
B|--------|------|-------|--------|
G|--------|------|-------|--------|
D|--------|------|-------|--5-----|
A|-2------|2-----|-2-----|--3-----|
E|-0---|0---|-0---|-----| x2

e|----------|----------|---------------|
B|---10---11|----10--11|—--10--|
G|-8--------|---8------|--8------------|
D|----------|----------|---------------|
A|----------|----------|---------------|
E|----------|----------|---------------|

Solo 2
e|-------------------|----------------------|
B|---11---11-13///16-|----11----16-16-16-15-|
G|-12--12------------|--12---12-------------|
D|-------------------|----------------------|
A|-------------------|----------------------|
E|-------------------|----------------------| x4

Order
1.	verse
2.	chirus
3.	chorus 2nd part
4.	verse
5.	chorus+ solo 1
6.	chorus 2nd part
7.	interlude
8.	chorus 2nd part
9.	chorus + solo 2
10.	verse x4

any questions give me a buzz: [email protected]


Текст, аккорды и табулатура для песни "I Think Im Paranoid", исполняет "Garbage".
Используемые в песне аккорды можно найти в разделе Как брать аккорды. Аккорды для шестиструнной гитары. Другие песни можно найти на нашем сайте, воспользовавшись алфавитным указателем вверху страницы.


 
Ошибка в тексте? Выделите ошибку и нажмите Ctrl+Enter