Gamma Ray: Rising Of The Damned
(orchestration arranged for 2 guitars and a bass)

First guitar plays these chords.  Do not strum the chords, play them like
you would play arpeggios, string by string.  Use your imagination here!

E |-5----|-0----|-6----|-3----|-2---|-0----|-6----|---------|---------|
B |-5----|-0----|-6----|-3----|-3---|-1----|-6----|---------|---------|
G |-5----|-0----|-7----|-3----|-2---|-2----|-7----|-8--7--5-|-5--7--8-|
D |-7----|-2----|-8----|-5----|-0---|-2----|-8----|---------|---------|
A |-7----|-2----|-8----|-5----|-----|-0----|-8----|-6--5--3-|-3--5--6-|
E |-5----|-0----|-6----|-3----|-----|------|-6----|---------|---------|

E |-----|------|-5----|-10----||
B |-----|-7----|-7----|-10----||
G |-7---|-7----|-7----|-11----||
D |-7---|-7----|------|-------||
A |-5---|------|------|-------||
E |-----|------|------|-------||

2nd guitar:
E |-------------|-------------|-------------|--------------------|
B |---------17--|-17-15-------|------15-18--|-18-17-15-15-17-18--|
G |-14-16-17----|------17-16--|-15-17-------|--------------------|
D |-------------|-------------|-------------|--------------------|
A |-------------|-------------|-------------|--------------------|
E |-------------|-------------|-------------|--------------------|

E |-17----|-17-15-------|---------18--|18-17-15-15-17-18-|-17-|-----|17-|22-||
B |-------|------18-17--|-18-17-18----|------------------|----|-19--|---|---||
G |-------|-------------|-------------|------------------|----|-----|---|---||
D |-------|-------------|-------------|------------------|----|-----|---|---||
A |-------|-------------|-------------|------------------|----|-----|---|---||
E |-------|-------------|-------------|------------------|----|-----|---|---||

Bass:
G |--------|--------|-------|----------|-------------|-----|----------|
D |--------|--------|-------|----------|-----------5-|-7---|-8--------|
A |-----sl.|-----7--|-5-----|----------|-5---5-7-8---|-----|-----8----|
E |-5---5-|-0------|---6---|-3--3-5-6-|-------------|-----|----------|

G |-------------|------|-----|------|-----||
D |-------------|------|-7---|------|-----||
A |-6-5-3-3-5-6-|-5----|-----|------|-5---||
E |-------------|------|-----|-5----|-----||


Текст, аккорды и табулатура для песни "Risingofthedamned", исполняет "Gamma Ray".
Используемые в песне аккорды можно найти в разделе Как брать аккорды. Аккорды для шестиструнной гитары. Другие песни можно найти на нашем сайте, воспользовавшись алфавитным указателем вверху страницы.


 
Ошибка в тексте? Выделите ошибку и нажмите Ctrl+Enter