Gamma Ray: All Of The Damned.

Bass rhythm at the beginning:                          (2 times)
G |----------------|-----------|---------------|------------|
D |o----5-7-8-7-5--|-----------|----5-7-8-7-5--|-----------o|
A |o-5------------5|-6---8---6-|-5------------5|-6----3----o|
E |----------------|-----------|---------------|------------|
                                                                 H P
With this guitar lick:               H                    sl.    //
E |5---|-----------|-------sl.------/-----|----------|----/8-6--6-8-6-|
B |7--|-----------|---8-7--/11-10--8-10---|-7--------|-8--------------|
G |-7-|--------77-|-8--------------8-10---|-7--------|-8--------------|
D |--7|-----------|-----------------------|----------|----------------|
A |---|5----------|-----------------------|----------|----------------|
E |----|-----------|-----------------------|----------|----------------|
   Sweep/

E |-5------5-6-|-8--5--6---5--------|-------H--P--|-------------------------|
B |------------|---------8---7--8---|-------//--|-------------------------|
G |------------|------------------8-|-7-----7-8-7-|-5----------------------|
D |------------|--------------------|-------------|--sl.--------------------|
A |------------|--------------------|-------------|-------------------------|
E |------------|--------------------|-------------|-------------------------|

The Heavy part that comes next is:
   GTR 1
E |----------|------------|-------------|-------------|------------------|
B |----------|------------|-sl.---------|-------------|------------------|
G |-7--------|-8--8-10--8-|-8/10-7------|-5---5--7--8-|-sl.-----7--------|
D |-7--------|-8--8-10--8-|-8/10-7------|-5---5--7--8-|-7/8--5--7--------|
A |-5--------|-6--6-8---6-|-6/8--5------|-3---3--5--6-|-5/6--3--5--------|
E |----------|------------|-------------|-------------|------------------|
  |GTR 2
E |----------|------------|-------------|-------------|------------------|
B |----------|------------|-------------|-------------|--H---------------|
G |-7--------|-8--8-10--8-|-8/10-7------|-------------|-/---------------|
D |-7--------|-8--8-10--8-|-8/10-7------|-----------5-|-7-8--5--7--------|
A |-5--------|-6--6-8---6-|-6/8--5------|-6---6--8----|------------------|
E |----------|------------|-------------|-------------|------------------|


E |------------|-----------|-----------------|
B |------------|-sl.-------|-----------------|
G |-8--8-10--8-|-8/10-7----|-5-5-5-5-5-5-5-5-|
D |-8--8-10--8-|-8/10-7----|-5-5-5-5-5-5-5-5-|
A |-6--6-8---6-|-6/8--5----|-3-3-3-3-3-3-3-3-|
E |------------|-----------|-----------------|
  |
E |------------|-----------|-----------------|
B |------------|-----------|-----------------|
G |------------|-sl.-------|-----------------|
D |-8--8-10--8-|-8/10-7----|-5--------------|
A |------------|-----------|-(pull down trem. bar)
E |------------|-----------|-----------------|


Here's the main riff (when it speeds up a little)                  (4
times)
E |------------------|-----------------|-----------------|------------------|
B |------------------|-----------------|-----------------|------------------|
G |o-7---------------|-----------------|-----------------|---------------7-o|
D |o-7---7-7-7-----7-|---7---7-----8-8-|-----7-7-7-7-7-5-|---------------7-o|
A |--5-5-5-5-5-5-5-5-|-5-5-5-5-5-5-6-6-|-5-5-5-5-5-6-5-3-|---0-3-5-6-5-3-5--|
E |------------------|-----------------|------------/---|------------------|

                                                     P
   (When you repeat this riff, don't pick the first D chord, let the last D
    chord ring instead.)

Solo over the main riff (it begins the 2nd time you play the riff)
E |------------------|--------------------|------------------|--------------|
B |-15---------------|--------15-16-15-13-|-15------15-16-15-|13---------15-|
G |------------------|---------/-/-/---|-----------//---|--------------|
D |------------------|----------H-P---P---|------------H-P---|--------------|
A |------------------|--------------------|------------------|--------------|
E |------------------|--------------------|------------------|--------------|

E |------------------|-----------------|-----------------|---------------|
B |-13----13---------|-----------------|-----------------|---------------|
G |----15----15-14-15|14-12-14-12-11-12|11----11---------|---------------|
D |------------------|-----------------|---13----13-12-13|12----------10-|
A |------------------|-----------------|-----------------|---------------|
E |------------------|-----------------|-----------------|---------------|

E |--------------|14----14-15-17-|-15-17-15-14-15-14--14-----------|---------
B |-15---16-15-16|---16----------|------------------16--16-15-16-15|13-15-13-
G |------(Actually, there is more|---------------------------------|---------
D |------notes than transcribed--|---------------------------------|---------
A |------but you should get at---|---------------------------------|---------
E |------least an idea ofwhich---|---------------------------------|---------
         notes to play)
E -----------------------------|
B ---13------------------------|
G -15--15-14-15-14-12-14-12-11-|
D -----------------------------|
A -----------------------------|
E -----------------------------|


E |-----------------|---------------|
B |-----------------|---------------|
G |-(7)-------------|-----7-5--5--5-| 


Текст, аккорды и табулатура для песни "All Of The Damned", исполняет "Gamma Ray".
Используемые в песне аккорды можно найти в разделе Как брать аккорды. Аккорды для шестиструнной гитары. Другие песни можно найти на нашем сайте, воспользовавшись алфавитным указателем вверху страницы.


 
Ошибка в тексте? Выделите ошибку и нажмите Ctrl+Enter