Edged In Blue from the album Calling Card

  Transcribed by Rob Watson [email protected]
  

E|-----------|-------------|-----------|2------|--------------|
B|------2--2-|-------------|-----------|2------|----3p2---3p2-|
G|------2--2-|2-------2--2-|1----------|2------|--2-2---2-2---|
D|------4--2-|2-------2--4-|2------2-4-|4------|--------------|
A|-----------|0-------0--4-|----s4-----|4------|0-------------|
E|-----------|-------------|-----------|---2-4-|--------------|

  A           E             F#m         A

E|10b12-10-9-|7h9p7---9s7--|9-----9b10r|9------|--------------|
B|-----------|-------------|-----------|-------|12b14--10-9---|
G|-----------|-------------|-----------|-------|--------------|
D|-----------|-------------|-----------|-------|--------------|
A|-----------|-------------|-----------|-------|--------------|
E|-----------|-------------|-----------|-------|--------------|

  E           F#m                   A              E

E|-----------|------------9h10r9---|------|-------|----------|
B|---------10|12b14r12b14--------12|12b14-|-------|----------|
G|11-9--11---|---------------------|------|9---11-|9---9s11--|
D|-----------|---------------------|------|-------|----------|
A|-----------|---------------------|------|-------|----------|
E|-----------|---------------------|------|-------|----------|

  F#m         A         D             G                A

E|-----------|---------|-------------|-----------5h7p5|------------|
B|10-12-12b14|---------|-------------|10b12-10-8------|8b10r8b10-r8|
G|-----------|9-9-11-12|12-11-9s7-9p7|----------------|------------|
D|-----------|---------|-------------|----------------|------------|
A|-----------|---------|-------------|----------------|------------|
E|-----------|---------|-------------|----------------|------------|

  A        D                   G

E|--------|-------------------|5b7r5b7r5b7r5-----9| 
B|b10-----|5b7r5b7r5b7r5------|--------------3----| 
G|--------|--------------2---2|-------------------| 
D|--------|-------------------|-------------------| 
A|--------|-------------------|-------------------| 
E|--------|-------------------|-------------------| 

  A                                               E

E|12-9----12-9----12b14-12-10p9------------------|12|
B|-----10------10---------------12-10-12-10----10|--|
G|------------------------------------------11---|--|
D|-----------------------------------------------|--|
A|-----------------------------------------------|--|
E|-----------------------------------------------|--|

[ F#m   E  A      A        F#m  E  F#m E   F#m                 A ] x 2

D                    G                   A            Asus4  A
   I've cried enough tears to fill up an ocean,  

D             G                        A         Asus4  A  E
   Surely you see that my world's been broken? 
 
F#m    E   A     A     F#m   E
Here   I   am,   where are   you?  

F#m  E  F#m             A
Help me please, pull me through.  

F#m    E   A    A      F#m   E
Here   I   am,  where  are   you? 

F#m    E  F#m               A 
All    my days are edged in blue. 

D                G                    A            Asus4  A
You made up your mind and nothing can change it,  

D              G                    A            Asus4  A E
You want to be free but I can't rearrange it. 

F#m  E A   A     F#m  E
Here I am, where are  you? 
 
F#m  E  F#m             A 
Tell me please, what to do, 

F#m  E A   A      F#m  E 
Here I am, broken into, 

F#m E  F#m               A 
All my days are edged in blue. 

C#m             A        C#m                        A
      I'd go anywhere,        if I thought you'd be there, 

C#m                         A           Bsus4 ? E
      'Cos I've  made up my mind that's where I belong. 
 
C#m                      A        C#m                      A
       I've traveled the world          'cos I couldn't be told, 
 
C#m               A              Bsus4 ?    E
       Told by my heart that you really had gone.  

I'd go anywhere, if I thought you'd be there,  
'Cos I've made up my mind that's where I belong.  
I've traveled the world 'cos I couldn't be told,  
Told by my heart that you really had gone.  

 

Our lines got crossed through all things unspoken.  
A tangle of knots not easily opened,


Текст, аккорды и табулатура для песни "Edged In Blue", исполняет "Gallagher Rory".
Используемые в песне аккорды можно найти в разделе Как брать аккорды. Аккорды для шестиструнной гитары. Другие песни можно найти на нашем сайте, воспользовавшись алфавитным указателем вверху страницы.


Слушать онлайн Edged In Blue


Rory GallagherEdged In Blue на Яндекс.Музыке


 
Ошибка в тексте? Выделите ошибку и нажмите Ctrl+Enter