e|---------------------------------------------------------------------------|
B|---------------------------------------------------------------------------|
G|---------------------------------------------------------------------------|
D|---------------------------------------------------------------------------|
A|-------7------6--------7--9--6---------------------------------------------|
E|----5------7------7/9------------------------------------------------------|

e|---------------------------------------------------------------------------|
B|---------------------------------------------------------------------------|
G|---------------------------------------------------------------------------|
D|---------------------------------------------------------------------------|
A|-------7------6--------7--9--6---------------------------------------------|
E|----5------7------7/9------------------------------------------------------|

this tab should be right. this is a great song.


Текст, аккорды и табулатура для песни "This Years Most Open Heartbreak", исполняет "Funeral For A Friend".
Используемые в песне аккорды можно найти в разделе Как брать аккорды. Аккорды для шестиструнной гитары. Другие песни можно найти на нашем сайте, воспользовавшись алфавитным указателем вверху страницы.


 
Ошибка в тексте? Выделите ошибку и нажмите Ctrl+Enter