song: This Years Most Open Heartbreak
band: Funeral For A Friend
tabbed by:funeralforafrie

Now IMO this is the best song ever, been my fave, the song that sorta
got me really into the band, so hope you enjoy the tab

Intro: [Now there are two version for guitar two's bit, Ive taken into
account what other people have said, and really either one is good]

Intro: Guitar 1 (Played 6 times)
Eb|--------------------| 
Bb|--------------------| 
Gb|--------------------| 
Db|---3---2-----3-5-2--|
Ab|-1---3---3h5--------|
Db|--------------------| 


Intro Guitar Two [version 1] x4
Eb|-----------------|
Bb|-----------------|
Gb|-----------------|
Db|---7---5---7-8-5-|
Ab|-5---8---7-------|
Db|-----------------|


or

Intro: Guitar 2 [Version 2] x4!
Eb|--------------------| 
Bb|--------------------|
Gb|----2---0---2-3-0---| 
Db|--0---3---2---------|
Ab|--------------------|
Db|--------------------|

Then Before the verse starts Guitar One does this

Eb|------|
Bb|------|
Gb|------| 
Db|------| 
Ab|3-----| 
Db|------|


And Guitar 2 Plays

Eb|------|
Bb|------|
Gb|------| 
Db|------| 
Ab|0-----| 
Db|------|

Verses are both played 4 times 

Verse [Guitar 1]

Eb|---------------------------------------------------------|
Bb|---------------------------------------------------------|
Gb|---------------------------------------------------------|
Db|-1p0-0-0-1-0-1-0-1p0-0-0-2-2-0-0-2-2-0-0-----3---2h3-----|
Ab|-1p0-0-0-1-0-1-0-1p0-0-0-2-2-0-0-2-2-0-0-0h3---0-----3h5-|
Db|-1p0-0-0-1-0-1-0-1p0-0-0-2-2-0-0-2-2-0-0-----------------|
        ...   .   .     ...     ...     ...


Verse [Guitar 2]

Eb|---------------------------------------------------------|
Bb|---------------------------------------------------------|
Gb|---------------------------------------------------------|
Db|-1p0-0-0-1-0-1-0-1p0-0-0-2-2-0-0-2-2-0-0-----7---7h8-----|
Ab|-1p0-0-0-1-0-1-0-1p0-0-0-2-2-0-0-2-2-0-0-5h8---8-----7h8-|
Db|-1p0-0-0-1-0-1-0-1p0-0-0-2-2-0-0-2-2-0-0-----------------|
        ...   .   .     ...     ...     ...


Pre Chorus!

Now this bits tricky, because one guitar plays the other remains silent, 
ive included two seperate versions, both sound good.
Both are played twice 

Pre-Chorus [Version 1] 

Eb|------------------------------------------------------------------------------|
Bb|------------------------------------------------------------------------------|
Gb|-----10---9--------12---10---9---------------10-9------------------12-10-9----|
Db|--------------10-----------------10-000-10-0------10-8-------10------------10-|
Ab|------------------------------------------------------------------------------|
Db|-8-8----8---8----8----8----8---8-----------------------10-10----10------------|
    ...    .   .    .    .    .   .    ...    .           .....    ..

Pre-Chorus [Version Two] 

Part One

Eb|--------------------------------------------| 
Bb|--------------------------------------------| 
Gb|-----10---9--------12---10---9--------------|
Db|--------------10-----------------10---------|
Ab|--------------------------------------------|
Db|-8-8----8---8----8----8----8---8------------|

Part Two

Eb|------------------------------------------------------|
Bb|------------------------------------------------------|
Gb|--------------------------------------12p10-----------|  
Db|--------------15p14--------------10-----------14p10---| 
Ab|---------15----------15p12----------------------------|
Db|12-12-12----12--------------10-10----10---------------|
   .. .. ..    ..              .. ..    ..

Chorus, listen to the CD for correct timing

Chorus Part One Guitar One 

Eb|---------------------------------|
Bb|---------------------------------|
Gb|-7-7-7-7-7-7-7-7-7-7-7-5-5-5-5-5-|
Db|-7-7-7-x-x-x-x-x-7-7-7-x-x-x-x-x-| x2
Ab|-5-5-5-5-5-5-5-5-5-5-5-3-3-3-3-3-|
Db|---------------------------------|

Chorus Part Two Guitar One

Eb|-------------------------|
Bb|-13-13-13----------------|
Gb|--x--x--x-13-13-13-13-13-|
Db|-10-10-10--x--x--x--x--x-| x4
Ab|----------10-10-10-10-10-|
Db|-------------------------|

Chorus Part One Guitar Two

Eb|------------------------------------------------------------|
Bb|------------------------------------------------------------|
Gb|-10--10-10--10--10-10--10--10--12--12-12--12-15-14-10h12-12-|
Db|--8---8--8---8---8--8---8---8--10--10-10--10----------------| x2
Ab|--8---8--8---8---8--8---8---8--10--10-10--10----------------|
Db|--8---8--8---8---8--8---8---8--10--10-10--10----------------|


Chorus Part Two Guitar Two

Eb|-------------------------------------------------|
Bb|-------------------------------------------------|
Gb|-10-10-10-10-10-10-10-10-10-10-10-10-10-10-10-10-|
Db|--8--8--8--8--8--8--8--8--8--8--8--8--8--8--8--8-|
Ab|--8--8--8--8--8--8--8--8--8--8--8--8--8--8--8--8-| 
Db|--8--8--8--8--8--8--8--8--8--8--8--8--8--8--8--8-|

Eb|----------------------------------------|
Bb|----------------------------------------|
Gb|-12-12-12-12-12-12-12-12-15-14-10h12-12-|
Db|-10-10-10-10-10-10-10-10----------------|
Ab|-10-10-10-10-10-10-10-10----------------|
Db|-10-10-10-10-10-10-10-10----------------|

Then after playing that guitar 2 goes straight into this
While guitar one is still doing Part Two

Eb|-------------------------------------------------|
Bb|-------------------------------------------------|
Gb|-10-10-10-10-10-10-10-10-10-10-10-10-10-10-10-10-|
Db|--8--8--8--8--8--8--8--8--8--8--8--8--8--8--8--8-|
Ab|--8--8--8--8--8--8--8--8--8--8--8--8--8--8--8--8-|
Db|--8--8--8--8--8--8--8--8--8--8--8--8--8--8--8--8-|

Eb|-------------------------13-12----------|
Bb|--------------------------x--x-13/15-15-|
Gb|-12-12-12-12-12-12-12-12-10--9--x/-x--x-|
Db|-10-10-10-10-10-10-10-10-------10/12-12-|
Ab|-10-10-10-10-10-10-10-10----------------|
Db|-10-10-10-10-10-10-10-10----------------|

Both of Guitar Two Part Two's are played once.

Then a repeat of all that missing out the pre-chorus, then 
the interlude arrives!!!!!!

Guitar One doesnt play anything in the first bit of the interlude
However in the second bit, it plays this in time with the drums

Eb|----------------------------------------|
Bb|----------------------------------------|
Gb|----------------------------------------|
Db|-0-0--0-0--0-0--0-0--0-0--0-0--0-0--0-0-| x4
Ab|-0-0--0-0--0-0--0-0--0-0--0-0--0-0--0-0-|
Db|-0-0--0-0--0-0--0-0--0-0--0-0--0-0--0-0-|
    ......................................

Interlude Guitar Two Part One

Note: You can mix and match here for the first part, you could either
play both versions once each or play one of the versions twice
either way it sounds good

Firstly it plays this once

Eb|----------------------------------------| 
Bb|----------------------------------------| 
Gb|----------------------------------------|
Db|------10--------------------------------| 
Ab|-------------8-----10h12-----8---7h8----| 
Db|-0-0-----0-0---0-0-------0-0---0--------|
    . .     . .   . .       . .   .

Then it plays this

Eb|-------------------------------------|
Bb|-------------------------------------|
Gb|-------------------------------------|
Db|-----10------------------------------|
Ab|------------8-----8h12-----8-----7h8-|
Db|-0-0----0-0---0-0------0-0---0-0-----|
    ...    ...   ...      ...   ...

Interlude Guitar Two part Two!

Eb|----------------------------------------------------------------|
Bb|----------------------------------------------------------------|
Gb|---------------------------5p0-----7-----------7-----9-----9h10-|
Db|-----3p2-------------3p2-----------------7----------------------| x4
Ab|-----------3---3h5----------------------------------------------|
Db|-0-0-----0---0-----0-----0-----0-0---0-0---0-0---0-0---0-0------|
    ...     .   .     .     .     ...   ...   ...   ...   ...

Then play Pre-Chorus x2, Chorus x2 and Chorus part two x2

Both guitars play this once and end

Eb|-----------------------------|
Bb|-----------------------------|
Gb|-----------------------------|
Db|-1p0-0-0-1-0-1-0-1p0-0-0-2-2-|
Ab|-1p0-0-0-1-0-1-0-1p0-0-0-2-2-|
Db|-1p0-0-0-1-0-1-0-1p0-0-0-2-2-|
        ...   .   .     ...


There you have the song

Lyrics 

throw that punch
swing to hit the target 
It's a pointless game
One better less played 
Suicide
To kiss your kids goodnight
Will you take from them
What they've taken from you

To be the last one who will sing you to sleep
Just like your unbroken records (you're broken)
A comfort to you tonight

throw that punch
swing to hit the target 
It's a pointless game
One better less played 
Suicide
To kiss your kids goodnight
Will you take from them
What they've taken from you

we will never be the same
same old songs on a brand new stereo
same old songs

Just like your broken records (you're broken)
Will convert, for you tonight


Текст, аккорды и табулатура для песни "This Years Most Open Heartbreak", исполняет "Funeral For A Friend".
Используемые в песне аккорды можно найти в разделе Как брать аккорды. Аккорды для шестиструнной гитары. Другие песни можно найти на нашем сайте, воспользовавшись алфавитным указателем вверху страницы.


 
Ошибка в тексте? Выделите ошибку и нажмите Ctrl+Enter