This song kicks ass, its just the intro coz i aint worked da rest out!
Artist: Funeral for a friend
Song; This years most open heartbreak
Tabbed by Andi Morley

e|-------------||-------------||-------------||-------------||-------------|
b|-------------||-------------||-------------||-------------||-------------|
g|-------------||-------------||-------------||-------------||-------------|
d|-------------||-------------||-------------||-------------||-------------| 
a|-7-6----9-6--||-7-6----9-6--||-7-6----9-6--||-7-6----9-6--||-7-6----9-6--|
e|5-7-9-12-----||5-7-9-12-----||5-7-9-12-----||5-7-9-12-----||5-7-9-12-----|

e|-------------|
b|-------------|
g|-------------|
d|-------------|
a|-7-6----9-6--|
e|5-7-9-12-----|

This is mi first tab so im sorry if it sux a bit bt it sounds ok!
Kurt Cobain 4eva


Текст, аккорды и табулатура для песни "This Years Most Open Heartbreak", исполняет "Funeral For A Friend".
Используемые в песне аккорды можно найти в разделе Как брать аккорды. Аккорды для шестиструнной гитары. Другие песни можно найти на нашем сайте, воспользовавшись алфавитным указателем вверху страницы.


 
Ошибка в тексте? Выделите ошибку и нажмите Ctrl+Enter