Funeral For A Friend - The Art Of American Football
Submitted By: Stand Alone ([email protected])
Album:Seven Ways To Scream Your Name

Tabbed by Kyle Gayne

Intro
G:------------------------------------------------------------------|
D:------------------------------------------------------------------|
A:-------------------------------------------------4~~~-------------|x1
E:-1-----------------------4~--3~--1-----1-1---------------4-4-3-3--|

Verse
G:----------------------------------|
D:----------------------------------|
A:-----------------44444444---------|x4
E:-1111111111111111--------44443333-|

Chorus
G:-----------------------------------|
D:-----------------------------------|
A:---------44444444------------------|x4
E:-11111111--------44446p44433334444-|

Repeat:
Verse
Chorus

Bridge
G:----------------------------------|  |----------------------------------|
D:----------------------------------|  |----------------------------------|
A:---------4~~~---------------------|x4|---------4---4-4-----------------|x4
E:-1~~~------------4~~~----3~--4~---|  |-1---1-1---------4---6-4-3-3-4-4--|

Chorus
G:-----------------------------------|  |------|
D:-----------------------------------|  |------|
A:---------44444444------------------|x4|------|x1
E:-11111111--------44446p44433334444-|  |-1----|


Текст, аккорды и табулатура для песни "The Art Of American Football", исполняет "Funeral For A Friend".
Используемые в песне аккорды можно найти в разделе Как брать аккорды. Аккорды для шестиструнной гитары. Другие песни можно найти на нашем сайте, воспользовавшись алфавитным указателем вверху страницы.


 
Ошибка в тексте? Выделите ошибку и нажмите Ctrl+Enter