Funeral For A Friend
She Drove Me To Daytime Television
Tabbed By [email protected]
Drop C# Tuning

--------------------------
Guitar One (Right Channel)
--------------------------

Intro

Eb|--------------------------------------------------------------------|
Bb|--------------------------------------------------------------------|
Gb|-----------------------7-9-9-x-------------------------7-9-9--------|
Db|-5-5-5-5---5-5-5-5-5---x-x-x-x---5-5-5-5---5-5-5-5-5---x-x-x--------|
Ab|-5-5-5-5---5-5-5-5-5---5/7-7-x---5-5-5-5---5-5-5-5-5---5/7-7--------|
Db|-5-5-5-5---5-5-5-5-5-0-----------5-5-5-5---5-5-5-5-5-0--------------|
                        x                               x

Eb|--------------------------------------------------------------------|
Bb|--------------------------------------------------------------------|
Gb|------------------7-9-9-------------------7-9-9---------------------|
Db|-0---0--0-0---0---x-x-x--0---0--0-0---0---x-x-x---------------------|
Ab|-0---0--0-0---0---5/7-7--0---0--0-0---0---5/7-7---------------------|
Db|-0---0--0-0---0-0--------0---0--0-0---0-0---------------------------|
        x  x     x x            x  x     x x

Eb|--------------------------------------------------------------------|
Bb|--------------------------------------------------------------------|
Gb|-----------------------7-9-9-x-------------------------7-9-9--------|
Db|-5-5-5-5---5-5-5-5-5---x-x-x-x---5-5-5-5---5-5-5-5-5---x-x-x--------|
Ab|-5-5-5-5---5-5-5-5-5---5/7-7-x---5-5-5-5---5-5-5-5-5---5/7-7--------|
Db|-5-5-5-5---5-5-5-5-5-0-----------5-5-5-5---5-5-5-5-5-0--------------|
                        x                               x

Eb|--------------------------------------------------------------------|
Bb|--------------------------------------------------------------------|
Gb|----------------------------------------------6/7/6/7---------------|
Db|-9--9-9-x-5--5-5--5-5-5-7--9--9-9-x-5--5-5----x-x-x-x---------------|
Ab|-9--9-9-x-5--5-5--5-5-5-7--9--9-9-x-5--5-5----4/5/4/5---------------|
Db|-9--9-9-x-5--5-5--5-5-5-7--9--9-9-x-5--5-5--0-----------------------|
                                               x

Verse

Eb|--------------------------------------------------------------------|
Bb|--------------------------------------------------------------------|
Gb|-----------7-9-------------7-9-------------9-11------------9/11/9---|
Db|-----------x-x-------------x-x-------------x-x-------------x-x--x---| X 4
Ab|-----------5/7-------------5/7-------------7/9-------------7/9-/7---|
Db|-0-5-5--0------0-0-5-5--0------0-0-9-9--0------0-0-9-9--0-----------|
    x x x  x      x x x x  x      x x x x  x      x x x x  x

Chorus

Eb|--------------------------------------------------------------------|
Bb|--------------------------------------------------------------------|
Gb|--------------------------------------------------------------------|
Db|-5-5-5-5-5-5-5-5-5-5-5-5--5/7-7/9---9-9-9-9-9-9-9-9-9/7-7-7-7-7-7-7-| X 2
Ab|-5-5-5-5-5-5-5-5-5-5-5-5--5/7-7/9---9-9-9-9-9-9-9-9-9/7-7-7-7-7-7-7-|
Db|-5-5-5-5-5-5-5-5-5-5-5-5--5/7-7/9---9-9-9-9-9-9-9-9-9/7-7-7-7-7-7-7-|

Eb|--------------------------------------------------------------------|
Bb|--------------------------------------------------------------------|
Gb|--------------------------------------------------------------------|
Db|-5-5-5-5-5-5-5-5-5-5-5-5--5/7-7/9---9-9-9-9-9-9-9-9-9/7-7-7-7-7-7-7-| X 2
Ab|-5-5-5-5-5-5-5-5-5-5-5-5--5/7-7/9---9-9-9-9-9-9-9-9-9/7-7-7-7-7-7-7-|
Db|-5-5-5-5-5-5-5-5-5-5-5-5--5/7-7/9---9-9-9-9-9-9-9-9-9/7-7-7-7-7-7-7-|
    x x x x x x x x x x x x            x x x x x x x x     x x x x x x

Eb|--------------------------------------------------------------------|
Bb|--------------------------------------------------------------------|
Gb|-----------------------7-9-9-x-------------------------7-9-9--------|
Db|-----------------------x-x-x-x---5-5-5-5---5-5-5-5-5---x-x-x--------|
Ab|-----------------------5/7-7-x---5-5-5-5---5-5-5-5-5---5/7-7--------|
Db|---------------------------------5-5-5-5---5-5-5-5-5-0--------------|
                                                        x

Eb|--------------------------------------------------------------------|
Bb|--------------------------------------------------------------------|
Gb|------------------7-9-9-------------------7-9-9---------------------|
Db|-0---0--0-0---0---x-x-x--0---0--0-0---0---x-x-x---------------------|
Ab|-0---0--0-0---0---5/7-7--0---0--0-0---0---5/7-7---------------------|
Db|-0---0--0-0---0-0--------0---0--0-0---0-0---------------------------|
        x  x     x x            x  x     x x

Eb|--------------------------------------------------------------------|
Bb|--------------------------------------------------------------------|
Gb|-----------------------7-9-9-x-------------------------7-9-9--------|
Db|-5-5-5-5---5-5-5-5-5---x-x-x-x---5-5-5-5---5-5-5-5-5---x-x-x--------|
Ab|-5-5-5-5---5-5-5-5-5---5/7-7-x---5-5-5-5---5-5-5-5-5---5/7-7--------|
Db|-5-5-5-5---5-5-5-5-5-0-----------5-5-5-5---5-5-5-5-5-0--------------|
                        x                               x

Eb|--------------------------------------------------------------------|
Bb|--------------------------------------------------------------------|
Gb|----------------------------------------------6/7/6/7---------------|
Db|-9--9-9-x-5--5-5--5-5-5-7--9--9-9-x-5--5-5----x-x-x-x---------------|
Ab|-9--9-9-x-5--5-5--5-5-5-7--9--9-9-x-5--5-5----4/5/4/5---------------|
Db|-9--9-9-x-5--5-5--5-5-5-7--9--9-9-x-5--5-5--0-----------------------|
                                               x

Verse

Eb|--------------------------------------------------------------------|
Bb|--------------------------------------------------------------------|
Gb|-----------7-9-------------7-9-------------9-11------------9/11/9---|
Db|-----------x-x-------------x-x-------------x-x-------------x-x--x---| X 4
Ab|-----------5/7-------------5/7-------------7/9-------------7/9-/7---|
Db|-0-5-5--0------0-0-5-5--0------0-0-9-9--0------0-0-9-9--0-----------|
    x x x  x      x x x x  x      x x x x  x      x x x x  x

Chorus

Eb|--------------------------------------------------------------------|
Bb|--------------------------------------------------------------------|
Gb|--------------------------------------------------------------------|
Db|-5-5-5-5-5-5-5-5-5-5-5-5--5/7-7/9---9-9-9-9-9-9-9-9-9/7-7-7-7-7-7-7-| X 2
Ab|-5-5-5-5-5-5-5-5-5-5-5-5--5/7-7/9---9-9-9-9-9-9-9-9-9/7-7-7-7-7-7-7-|
Db|-5-5-5-5-5-5-5-5-5-5-5-5--5/7-7/9---9-9-9-9-9-9-9-9-9/7-7-7-7-7-7-7-|

Eb|--------------------------------------------------------------------|
Bb|--------------------------------------------------------------------|
Gb|--------------------------------------------------------------------|
Db|-5-5-5-5-5-5-5-5-5-5-5-5--5/7-7/9---9-9-9-9-9-9-9-9-9/7-7-7-7-7-7-7-| X 2
Ab|-5-5-5-5-5-5-5-5-5-5-5-5--5/7-7/9---9-9-9-9-9-9-9-9-9/7-7-7-7-7-7-7-|
Db|-5-5-5-5-5-5-5-5-5-5-5-5--5/7-7/9---9-9-9-9-9-9-9-9-9/7-7-7-7-7-7-7-|
    x x x x x x x x x x x x            x x x x x x x x     x x x x x x

Bridge

Eb|--------------------------------------------------------------------|
Bb|--------------------------------------------------------------------|
Gb|--------------------------------------------------------------------|
Db|--------------------------------------------------------------------| X 4
Ab|--------------------------------------------------------------------|
Db|-5-4-0~0~0~0~0~~-9~~9~9~9--5~~5~5~5---------------------------------|

Eb|--------------------------------------------------------------------|
Bb|--------------------------------------------------------------------|
Gb|--------------------------------------------------------------------|
Db|-5-4-0-0--0------0--------9--9-9-9--5--5-5-5------------------------| X 4
Ab|-5-4-0-0--0------0--------9--9-9-9--5--5-5-5------------------------|
Db|-5-4-0-0--0------0--------9--9-9-9--5--5-5-5------------------------|
    x x x x

Eb|--------------------------------------------------------------------|
Bb|--------------------------------------------------------------------|
Gb|--------------------------------------------------------------------|
Db|-5-4-0-0-5-4-0-0-5-4-0-0-5-4-0-0-0-5-4-0-0-5-4-0-0-5-4-0-0-5-4-0-0--| 
Ab|-5-4-0-0-5-4-0-0-5-4-0-0-5-4-0-0-0-5-4-0-0-5-4-0-0-5-4-0-0-5-4-0-0--|
Db|-5-4-0-0-5-4-0-0-5-4-0-0-5-4-0-0-0-5-4-0-0-5-4-0-0-5-4-0-0-5-4-0-0--|
    x x x   x x x   x x x   x x x     x x x   x x x   x x x   x x x x

-------------------------
Guitar Two (Left Channel)
-------------------------

Intro

Eb|--------------------------------------------------------------------|
Bb|--------------------------------------------------------------------|
Gb|-1111111111--11111111----11/12-12/13-1111111111--11111111----11/9-9-|
Db|-x-x-x-x-x---x-x-x-x-x-x-x--x--x--x--x-x-x-x-x---x-x-x-x-x-x-x--x-x-|
Ab|-9-9-9-9-9---9-9-9-9-x-x-9-/10-10/11-9-9-9-9-9---9-9-9-9-x-x-9-/7-7-|
Db|--------------------------------------------------------------------|

Eb|--------------------------------------------------------------------|
Bb|--------------------------------------------------------------------|
Gb|-9---11--7--7-7--6-6-6-6--9---11--7--7-7--6-6-6-6-------------------|
Db|-x---x---x--x-x--x-x-x-x--x---x---x--x-x--x-x-x-x-------------------|
Ab|-7---9---5--5-5--4-4-4-4--7---9---5--5-5--4-4-4-4-------------------|
Db|--------------------------------------------------------------------|

Eb|--------------------------------------------------------------------|
Bb|--------------------------------------------------------------------|
Gb|-1111111111--11111111----11/12-12/13-1111111111--11111111----11/9-9-|
Db|-x-x-x-x-x---x-x-x-x-x-x-x--x--x--x--x-x-x-x-x---x-x-x-x-x-x-x--x-x-|
Ab|-9-9-9-9-9---9-9-9-9-x-x-9-/10-10/11-9-9-9-9-9---9-9-9-9-x-x-9-/7-7-|
Db|--------------------------------------------------------------------|

Eb|--------------------------------------------------------------------|
Bb|--------------------------------------------------------------------|
Gb|-9--9-11--7--7-7--6-6-6-6--7--7-7-9--6--6-6-------------------------|
Db|-x--x-x---x--x-x--x-x-x-x--x--x-x-x--x--x-x-------------------------|
Ab|-7--7-9---5--5-5--4-4-4-4--5--5-5-7--4--4-4-------------------------|
Db|--------------------------------------------------------------------|

Verse
                                                                         
Eb|---------10--------------10--------------10---------------10--------|  
Bb|------10-------10-----10-------10-----10-------10-----10------14p10-|  
Gb|--------------------------------------------------------------------|  
Db|-11-12-12-11-12--11-12-12-11-12--11-12-12-11-12--11-12--12---12-----| X 3
Ab|--------------------------------------------------------------------|  
Db|--------------------------------------------------------------------|  
    x  x  x  x  x   x  x  x  x  x   x  x  x  x  x   x  x   x    x
                                                                          
Eb|---------10--------------10--------------10-------------------------|  
Bb|------10-------10-----10-------10-----10-------10-----10--14p10--10-|  
Gb|--------------------------------------------------------------------|  
Db|-11-12-12-11-12--11-12-12-11-12--11-12-12-11-12--11-12--12-----12---|
Ab|--------------------------------------------------------------------|  
Db|--------------------------------------------------------------------|  
    x  x  x  x  x   x  x  x  x  x   x  x  x  x  x   
         
Chorus

Eb|-----------------------------------------------------------10-------|  
Bb|----------10------14p10-----10----------10------14p10---------------|  
Gb|--------------------------------------------------------------------| 
Db|--11--12------12---------11-----11--12------12---------12-----------|X 4 
Ab|--------------------------------------------------------------------|  
Db|--------------------------------------------------------------------|  

Eb|-----------------------------------------------------------10-------|  
Bb|----------10------14p10-----10----------10------14p10---------------|  
Gb|--------------------------------------------------------------------|
Db|--11--12------12---------11-----11--12------12---------12-----------|X 4 
Ab|--------------------------------------------------------------------|  
Db|--------------------------------------------------------------------|  
     x   x       x          x      x   x       x          x

Eb|--------------------------------------------------------------------|
Bb|--------------------------------------------------------------------|
Gb|-1111111111--11111111----11/12-12/13-1111111111--11111111----11/9-9-|
Db|-x-x-x-x-x---x-x-x-x-x-x-x--x--x--x--x-x-x-x-x---x-x-x-x-x-x-x--x-x-|
Ab|-9-9-9-9-9---9-9-9-9-x-x-9-/10-10/11-9-9-9-9-9---9-9-9-9-x-x-9-/7-7-|
Db|--------------------------------------------------------------------|


Eb|--------------------------------------------------------------------|
Bb|--------------------------------------------------------------------|
Gb|-9---11--7--7-7--6-6-6-6--9---11--7--7-7--6-6-6-6-------------------|
Db|-x---x---x--x-x--x-x-x-x--x---x---x--x-x--x-x-x-x-------------------|
Ab|-7---9---5--5-5--4-4-4-4--7---9---5--5-5--4-4-4-4-------------------|
Db|--------------------------------------------------------------------|

Eb|--------------------------------------------------------------------|
Bb|--------------------------------------------------------------------|
Gb|-1111111111--11111111----11/12-12/13-1111111111--11111111----11/9-9-|
Db|-x-x-x-x-x---x-x-x-x-x-x-x--x--x--x--x-x-x-x-x---x-x-x-x-x-x-x--x-x-|
Ab|-9-9-9-9-9---9-9-9-9-x-x-9-/10-10/11-9-9-9-9-9---9-9-9-9-x-x-9-/7-7-|
Db|--------------------------------------------------------------------|

Eb|--------------------------------------------------------------------|
Bb|--------------------------------------------------------------------|
Gb|-9--9-11--7--7-7--6-6-6-6--7--7-7-9--6--6-6-------------------------|
Db|-x--x-x---x--x-x--x-x-x-x--x--x-x-x--x--x-x-------------------------|
Ab|-7--7-9---5--5-5--4-4-4-4--5--5-5-7--4--4-4-------------------------|
Db|--------------------------------------------------------------------|

Verse
                                                                         
Eb|---------10--------------10--------------10---------------10--------|  
Bb|------10-------10-----10-------10-----10-------10-----10------14p10-|  
Gb|--------------------------------------------------------------------|  
Db|-11-12-12-11-12--11-12-12-11-12--11-12-12-11-12--11-12--12---12-----| X 3
Ab|--------------------------------------------------------------------|  
Db|--------------------------------------------------------------------|  
    x  x  x  x  x   x  x  x  x  x   x  x  x  x  x   x  x   x    x
                                                                          
Eb|---------10--------------10--------------10-------------------------|  
Bb|------10-------10-----10-------10-----10-------10-----10--14p10--10-|  
Gb|--------------------------------------------------------------------|  
Db|-11-12-12-11-12--11-12-12-11-12--11-12-12-11-12--11-12--12-----12---|
Ab|--------------------------------------------------------------------|  
Db|--------------------------------------------------------------------|  
    x  x  x  x  x   x  x  x  x  x   x  x  x  x  x   
         
Chorus

Eb|-----------------------------------------------------------10-------|  
Bb|----------10------14p10-----10----------10------14p10---------------|  
Gb|--------------------------------------------------------------------| 
Db|--11--12------12---------11-----11--12------12---------12-----------|X 4 
Ab|--------------------------------------------------------------------|  
Db|--------------------------------------------------------------------|  

Eb|-----------------------------------------------------------10-------|  
Bb|----------10------14p10-----10----------10------14p10---------------|  
Gb|--------------------------------------------------------------------|
Db|--11--12------12---------11-----11--12------12---------12-----------|X 4 
Ab|--------------------------------------------------------------------|  
Db|--------------------------------------------------------------------|  
     x   x       x          x      x   x       x          x

Bridge

Guitar Alone Once, 
Then Play This...

Eb|-*12*------------------------*12*-----------------------------------|
Bb|-----*12*------------------------*12*-------------------------------|
Gb|---------*12*------------------------*12*---------------------------|
Db|---------------------------------------------*12*-------------------| X 3
Ab|--------------------------------------------------------------------|
Db|--------------------------------------------------------------------|
    N.H.........                N.H.................

Eb|----------10------12--10------10----------10------12--10------10----|
Bb|------10------10----------10----------10------10----------10--------|
Gb|--------------------------------------------------------------------|
Db|--12------------------------------12--------------------------------|X 11
Ab|--------------------------------------------------------------------|
Db|--------------------------------------------------------------------|


Eb|----------10------12--10------10----------10------------------------|
Bb|------10------10----------10----------10----------------------------|
Gb|--------------------------------------------------------------------|
Db|--12------------------------------12----------0---------------------|
Ab|----------------------------------------------0---------------------|
Db|----------------------------------------------0---------------------|
                                                 x

Any Questions Or Comments To [email protected]


Текст, аккорды и табулатура для песни "She Drove Me To Daytime Television", исполняет "Funeral For A Friend".
Используемые в песне аккорды можно найти в разделе Как брать аккорды. Аккорды для шестиструнной гитары. Другие песни можно найти на нашем сайте, воспользовавшись алфавитным указателем вверху страницы.


 
Ошибка в тексте? Выделите ошибку и нажмите Ctrl+Enter