ARTIST: Funeral For A Friend
TITLE:  Rookie Of The Year
ALBUM:  Casually Dressed And Deep In Conversation
GENRE:  Emocore
YEAR:   2003

by Luke Charman

---

This tab is far from complete, and it's probably not 100% accurate, or even 50%
accurate, but, I tried for you guys, funeralforafrie especially, since nothing
else was here at all. Just one guitar's intro, verse, chorus, and a couple of
other little parts. Hopefully someone can build on this start, and tab the whole
song out.

(5) - Harmonic.
 .  - Palm mute.

---

Intro

Eb|--------------------------------------
Bb|--------------------------------------
Gb|-----14-10-12--777-777-999-666-7-4-2--
Db|--9---x--x--x--777-777-999-666-7-4-2--
Ab|--9--12--8-10--555-555-777-444-5-2-0--
Db|--9-----------------------------------

The small part at the end of the intro is (I think):

Eb|------------------------------------
Bb|------------------------------------
Gb|--------------------------------7---
Db|--5555-555-555-555-555-555-555-77---
Ab|--5555-555-555-555-555-555-555-75---
Db|--5555-555-555-555-555-555-555-7----

---

Verse

Eb|----------------------------------------------
Bb|----------------------------------------------
Gb|----------------------------------------------
Db|--0000-00-0000-00-(5)-----0000-00-----(5)-----
Ab|--0000-00-0000-00-----(5)-0000-00-(5)-----(5)-
Db|--0000-00-0000-00---------0000-00-------------
     .... .. .... ..         .... ..

Eb|----------------------------------------------
Bb|----------------------------------------------
Gb|--------------------------------------(5)-----
Db|--0000-00-0000-00-(5)-----0000-00-------------
Ab|--0000-00-0000-00-----(5)-0000-00-(5)-----(5)-
Db|--0000-00-0000-00---------0000-00-------------
     .... .. .... ..         .... ..

---

Chorus

Eb|-----------12-10-9----------12-10-9---------------------------------
Bb|-----11---------------11---------------11---------------------------
Gb|--10----10---------10----10---------10----10-9-9-9-8-8-8-8h10-10h12-
Db|--------------------------------------------------------------------
Ab|--------------------------------------------------------------------
Db|--------------------------------------------------------------------

---

Bridge (The section from 'In desperation.. my only light..')

Eb|--------------------------------------------------------------------
Bb|--------------------------------------------------------------------
Gb|--7-7-7-6-6-6-7-7--6-7h9--------------------------------------------
Db|--7-7-7-6-6-6-7-7--6-7h9--------------------------------------------
Ab|--5-5-5-4-4-4-5-5--4-5h7--------------------------------------------
Db|--------------------------------------------------------------------

Eb|----9-10-------10-9----------9-10-------12-10-----------------------
Bb|-10---------10------10----10---------10-------10--------------------
Gb|--------------------------------------------------------------------
Db|--------------------------------------------------------------------
Ab|--------------------------------------------------------------------
Db|--------------------------------------------------------------------

---

Well, that's all I've got I'm afraid! If you have any questions, comments,
corrections, or whatever, my MSN Messenger address is [email protected] You can email
me there too if you want, but I don't check that address all that often.


Текст, аккорды и табулатура для песни "Rookie Of The Year", исполняет "Funeral For A Friend".
Используемые в песне аккорды можно найти в разделе Как брать аккорды. Аккорды для шестиструнной гитары. Другие песни можно найти на нашем сайте, воспользовавшись алфавитным указателем вверху страницы.


 
Ошибка в тексте? Выделите ошибку и нажмите Ctrl+Enter