FFAF-Moments Forever Faded
Any questions queries or comments then mail me at [email protected]

Intro
Guitar 1
e|-------|
B|-------|
G|--6-6--|
D|--6-6--|He plays this loads of times, not quite sure how many.
A|--4-4--|
E|-------|

Guitar 2
e|----------------------|
B|----------------------|
G|----------------------|
D|--8--------6-------4--|Guitar two comes in and plays these chords over 
A|--8--------6-------4--|the first guitar
E|--6--------4-------2--|

Verse
Guitar 1
e|-----------|----------|----------|----------|-------------|
B|-----------|----------|----------|----------|-------------|
G|--6--------|--6-5-----|--6-5-----|--6-5-----|--------5-6--|
D|----5-6----|------6---|------6---|------6---|------6------|
A|-----------|--------8-|--------8-|--------8-|--6-8--------|
E|-----------|----------|----------|----------|-------------|

Guitar 2
e|-----------|----------|----------|----------|-------------|
B|-----------|----------|----------|----------|-------------|
G|-----------|----------|----------|----------|-------------|
D|--8---6----|-4-4-44-4-|-4-4-44-4-|-4-4-44-4-|-4-4-44-4--6-|
A|--8---6----|-4-4-44-4-|-4-4-44-4-|-4-4-44-4-|-4-4-44-4--6-|
E|--6---4----|-2-2-22-2-|-2-2-22-2-|-2-2-22-2-|-2-2-22-2--4-|
PM             . . ..     . . ..     . . ..     . . .. 

Chorus
Both Guitars Play
e|-----------------|-----------------|-----------------|-----------------|
B|-----------------|-----------------|-----------------|-----------------|
G|-----------------|-----------------|-----------------|-6-6-6-6-6-6-6-6-|
D|-4-4-4-4-4-4-4-4-|-4-4-4-4-4-4-4-4-|-8-8-8-8-8-8-8-8-|-6-6-6-6-6-6-6-6-|
A|-4-4-4-4-4-4-4-4-|-4-4-4-4-4-4-4-4-|-8-8-8-8-8-8-8-8-|-4-4-4-4-3-3-3-3-|
E|-2-2-2-2-2-2-2-2-|-2-2-2-2-2-2-2-2-|-6-6-6-6-6-6-6-6-|-----------------|

The other verses are the same as are the choruses.

Bridge He plays each one 16 times (not too sure)
e|-------|-------|
B|-------|-------|
G|-------|-------|
D|--8-8--|--4-4--|
A|--8-8--|--4-4--|
E|--6-6--|--2-2--|

On the third chorus the second guitar plays octaves over the normal one
e|------------------------|
B|------------------------|
G|--6----8----13----6--5--|
D|--x----x----x-----x--x--|
A|--4----6----11----4--3--|
E|------------------------|


Текст, аккорды и табулатура для песни "Moments Forever Faded", исполняет "Funeral For A Friend".
Используемые в песне аккорды можно найти в разделе Как брать аккорды. Аккорды для шестиструнной гитары. Другие песни можно найти на нашем сайте, воспользовавшись алфавитным указателем вверху страницы.


 
Ошибка в тексте? Выделите ошибку и нажмите Ctrl+Enter