this song rocks

bass comes in at 0:04 after drum intro

A#|----------------------------------------------------------------------|
F |------------------------------------------66-666----------------------|
C |--777---------------------------------7-9-----------------9--7--66-66-|
Db|-----9-9999-999-999-999-9999--5-5-555---------------7-7-777-----------|x2

(2nd time dont play the 7's at the beginning)

pre-chorus

A#|----------------------------------------------|
F |----------------------------------------------|
C |----------------------------------------------|
Db|--555--------555---------999------999---------|x2

chorus

A#|---------------------------------------|
F |---------------------------------------|
C |-----------------------------77777777--|
Db|--55555555-77777777-99999999-----------|x2

chorus continued

A#|---------------------------------------|
F |--77777777-----------------------------|
C |-----------99999999--------------------|
Db|--------------------99999999-55555555--|x2

verse

A#|----------------------------------------------------------------------|
F |------------------------------------------66-666----------------------|
C |--777---------------------------------7-9-----------------9--7--66-66-|
Db|-----9-9999-999-999-999-9999--5-5-555---------------7-7-777-----------|x2

pre-chorus

A#|----------------------------------------------|
F |----------------------------------------------|
C |----------------------------------------------|
Db|--555--------555---------999------999---------|x2

chorus

A#|---------------------------------------|
F |---------------------------------------|
C |-----------------------------77777777--|
Db|--55555555-77777777-99999999-----------|x2

chorus continued

A#|---------------------------------------|
F |--77777777-----------------------------|
C |-----------99999999--------------------|
Db|--------------------99999999-55555555--|x2

bridge

A#|-----------------------------------------------------------------------|
F |-99-99---99-99---99-99---99-99---999-999---999-999---999-999---999-999-|
C |-77-77---77-77---66-66---77-77---777-777---777-777---666-666---777-777-|
Db|-----------------------------------------------------------------------|
   play twice

A#|---------------------------------------------------------|
F |---------------------------------------------------------|
C |------------------------7777-6666-44444444-6666----------|
Db|--12-55555555--77777777------------------------00000000-|x2

A#|---------------------------------------------------------|
F |---------------------------------------------------------|
C |------------------------7777-6666-44444444-6666----------|
Db|--12-55555555--77777777------------------------00000000-|x4

break

A#|--------------------66666666-99999999--|
F |--77777777-99999999--------------------|
C |---------------------------------------|
Db|---------------------------------------|x2

end

A#|---------------------------------------------------------|
F |---------------------------------------------------------|
C |------------------------7777-6666-44444444-6666----------|
Db|--12-55555555--77777777------------------------00000000-|x4

there, this sounds right to me, any complaints or corrections to [email protected]


Текст, аккорды и табулатура для песни "Escape Artists Never Die", исполняет "Funeral For A Friend".
Используемые в песне аккорды можно найти в разделе Как брать аккорды. Аккорды для шестиструнной гитары. Другие песни можно найти на нашем сайте, воспользовавшись алфавитным указателем вверху страницы.


 
Ошибка в тексте? Выделите ошибку и нажмите Ctrl+Enter