Funeral For A Friend - Escape Artists Never Die
Tabber: Jake Horrocks
E-Mail: [email protected]

Bass comes in at 00:04

Verse

A#|------------------------------------------------------------------|
F |------------------------------------------------------------------|
C |--777-------------------------------------------------------------|
Db|-----999-9-9-9-9-9-9-999-9-9-9-9-9-9-999--555-555-55-77-7-7-7-77--| x 2

Pre-chorus

A#|------------------------------------|
F |------------------------------------|
C |------------------------------------|
Db|-55555----55555---99999-----999999--| x 2

Chorus

A#|--------------------------------|
F |--------------------------------|
C |------------------------777777--|
Db|-5555555-777777-9999999---------| x 4

Verse
Pre-Chorus
Chorus (let 7th fret ring)

Bridge

A#|---------------------------------------------------------------|
F |-99--99---99--99--99--99--99--999--999--999-999—-999--999--999-|
C |-77--77---77--77--66--66--77--777--777--777-777--666--666--777-|
Db|---------------------------------------------------------------|

A#|------------------------------------------------------|
F |------------------------------------------------------|
C |-------------------7777-6666-4444444--6666------------|
Db|-12/-5555555-77777--------------------------000000000-| 

A#|---------------------------------------------------|
F |---------------------------------------------------|
C |----------------7777-6666-4444444--6666------------|
Db|--5555555-77777--------------------------000000000-| x 6

Break

A#|-----------------------666666666--------------|
F |-77777777777-999999999------------------------|
C |----------------------------------7777777777--|
Db|----------------------------------------------|

End

A#|---------------------------------------------------|
F |---------------------------------------------------|
C |----------------7777-6666-4444444--6666------------|
Db|--5555555-77777--------------------------000000000-| x 4


Текст, аккорды и табулатура для песни "Escape Artists Never Die", исполняет "Funeral For A Friend".
Используемые в песне аккорды можно найти в разделе Как брать аккорды. Аккорды для шестиструнной гитары. Другие песни можно найти на нашем сайте, воспользовавшись алфавитным указателем вверху страницы.


 
Ошибка в тексте? Выделите ошибку и нажмите Ctrl+Enter