FUNERAL FOR A FRIEND - BEND YOUR ARMS TO LOOK LIKE WINGS
Tabbed by: Miranda Harding
Email: [email protected]

Tuning: Drop D, Half Step Down

PART 1                                          x6 6th time let note ring
D#|---------------------------------------12------|-----|
A#|-----10---------12---------10--------------10--|-----|
F#|--9------9---9------9---9------9---9-----------|--9--|
C#|-----------------------------------------------|-----|
G#|-----------------------------------------------|-----|
C#|-----------------------------------------------|-----|

PART 2
D#|---------------------------------------------------|
A#|---------------------------------------------------|
F#|---------------------------------------------------|
C#|--4-4-4-4-4-4-0-0-0-0-0-0-2-2-2-2-2-2-2-2-2-2-2-2--|
G#|--4-4-4-4-4-4-0-0-0-0-0-0-0-0-0-0-0-0-2-2-2-2-2-2--|
C#|--4-4-4-4-4-4-0-0-0-0-0-0-------------2-2-2-2-2-2--|

PART 3
D#|---------------------------0-----------------------------------0-----------|
A#|-----------10-----------------------------------10----------------7--5-----|
F#|--6--7--9------9--7--6--7-----4--2--4--6--7--9------9--7--6--7----------7--|
C#|---------------------------------------------------------------------------|
G#|---------------------------------------------------------------------------|
C#|---------------------------------------------------------------------------|

PART 4 (x5)
D#|--------------------------------------|
A#|--------------------------------------|
F#|------------------------9-9-9-9-9-11--|
C#|--0-0-0--0-0-0--0-0-0-----------------|
G#|--0-0-0--0-0-0--0-0-0-----------------|
C#|--0-0-0--0-0-0--0-0-0-----------------|

REPEAT PART 1
REPEAT PART 2

PART 5
D#|----------------------------|
A#|----------------------------|
F#|----------------------------|
C#|--0-0----0-0----0-0----0-0--|
G#|--0-0----0-0----0-0----0-0--|
C#|--0-0----0-0----0-0----0-0--|

REPEAT PART 1
REPEAT PART 2

PART 6
D#|---------------------------------------------------|
A#|---------------------------------------------------|
F#|---------------------------------------------------|
C#|--2-2-2-2-2-2-3-3-3-3-3-3-5-5-5-5-5-5-5-5-5-5-5-5--|
G#|--0-0-0-0-0-0-3-3-3-3-3-3-3-3-3-3-3-3-5-5-5-5-5-5--|
C#|--------------3-3-3-3-3-3-------------5-5-5-5-5-5--|

REPEAT PART 2

OUTRO
D#|--------------------------------------------------------------------------------|
A#|--------------------------------------------------------------------------------|
F#|-------2-2-------2-2-------2-2-------2-2------2-2------2-2-------1-1-------2-2--|
C#|--------------------------------------------------------------------------------|
G#|----4---------4---------0---------0--------2--------2---------2---------2-------|
C#|--4---------4---------0---------0--------2--------2---------2---------2---------|


Текст, аккорды и табулатура для песни "Bend Your Arms To Look Like Wings", исполняет "Funeral For A Friend".
Используемые в песне аккорды можно найти в разделе Как брать аккорды. Аккорды для шестиструнной гитары. Другие песни можно найти на нашем сайте, воспользовавшись алфавитным указателем вверху страницы.


 
Ошибка в тексте? Выделите ошибку и нажмите Ctrl+Enter