ARTIST: Funeral For A Friend
TITLE:  Bend Your Arms To Look Like Wings
TABBER:	Luke Charman ([email protected])
ALBUM:  Casually Dressed And Deep In Conversation
GENRE:  Emocore
YEAR:   2003
BAND:	Kris Roberts (Lead Guitar)
	Darran Smith (Rhythm Guitar)
	Matt Davies (Melody Vocals)
	Gareth Davies (Bass)
	Ryan Richards (Drums, Aggression Vocals)

---

Sorry if this tab is overly long. The riffs were tough to name since the intro = the
chorus and stuff, but I've laid out how it all works at the bottom so you should be able
to follow it fine. Good luck!

---

Intro Part One - Guitar 1 (Kris):

eb|-------------------------12-----|-----|
Bb|----10-----12-----10--------10--|-----|
Gb|--9----9-9----9-9----9-9--------|--9--|
Db|--------------------------------|-----|
Ab|--------------------------------|-----|
Db|--------------------------------|-----|

Intro Part One - Guitar 2 (Darran):

eb|-------------------------------------------------|-----|
Bb|-------------------------------------------------|-----|
Gb|-------------------------------------------------|-----|
Db|----------------------------2----------2---------|-----|
Ab|----7---555-4---7---555-4-0---0-5554-------5554--|--0--|
Db|--4---4-------0---0------------------2---2-------|-----|

Intro Part Two - Guitar 1 (Kris):

eb|--------4-----------------------4-------------------|
Bb|------4---4-------4-----------4---4-------4-6-4---4-|
Gb|--5-6-------6-5-6---3---3-5-6-------6-5-6-------6---|
Db|----------------------6-----------------------------|
Ab|----------------------------------------------------|
Db|----------------------------------------------------|

Intro Part Two - Guitar 2 (Darran):

eb|-------------------------------------------------------------------|
Bb|-------------------------------------------------------------------|
Gb|-------------------------------------------------------------------|
Db|----2---------------2---------------2---------------2--------------|
Ab|----------5-x-5-4---------5-x-5-4-0---0-0-5-x-5-4---------5-x-5-4--|
Db|--4---4-4---------0---0-0-------------------------2---2-2----------|

Intro Part Three - Guitar 1 (Kris):

eb|----------2--------|
Bb|----5---2---5---5--|
Gb|--2---2-------2----|
Db|-------------------|
Ab|-------------------|
Db|-------------------|

Intro Part Three - Guitar 2 (Darran):

eb|---------------------------------------|-----|
Bb|---------------------------------------|-----|
Gb|---------------------------------------|-----|
Db|--44444444-00000000-22222222-22222222--|--0--|
Ab|--44444444-00000000-00000000-22222222--|--0--|
Db|--44444444-00000000----------22222222--|--0--|

Verse - Guitar 1 (Kris):

eb|-----------------------------------|
Bb|-----------------------------------|
Gb|--------6-----6-7-------6-----6----|
Db|--0-0-0---7-0-----0-0-0---7-0---7--|
Ab|-----------------------------------|
Db|-----------------------------------|

Verse - Guitar 2 (Darran):

eb|----------------------------------------------|
Bb|----------------------------------------------|
Gb|--------------------------------9-9-9-9-9/11--|
Db|--0-0-0-----0-0-0-----0-0-0-------------------|
Ab|--0-0-0-----0-0-0-----0-0-0-------------------|
Db|--0-0-0-----0-0-0-----0-0-0-------------------|
     . . .     . . .     . . .

Verse End - Guitar 1 (Kris):

eb|--5-----4----|
Bb|----5-----5--|
Gb|-------------|
Db|-------------|
Ab|-------------|
Db|-------------|

Verse End - Guitar 2 (Darran):

eb|------------------|
Bb|------------------|
Gb|------------------|
Db|--0-0-----0-0-----|
Ab|--0-0-----0-0-----|
Db|--0-0-----0-0-----|
     . .     . .

Chorus End - Guitar 2 (Darran):

eb|------|
Bb|------|
Gb|------|
Db|--0~--|
Ab|--0~--|
Db|--0~--|

Other Fill - Guitar 1 (Kris):

eb|-----------------------|
Bb|-----8------10------8--|
Gb|-------9-------9-------|
Db|--10-----10------10----|
Ab|-----------------------|
Db|-----------------------|

Other Fill - Guitar 2 (Darran):

eb|---------------------------------------|
Bb|---------------------------------------|
Gb|---------------------------------------|
Db|--22222222-22222222-33333333-55555555--|
Ab|--22222222-00000000-33333333-33333333--|
Db|--22222222----------33333333-----------|

Outro - Guitar 1 (Kris):

eb|----5---7-5---5--|
Bb|--5---5-----5----|
Gb|-----------------|
Db|-----------------|
Ab|-----------------|
Db|-----------------|

Outro - Guitar 2 (Darran):

eb|-------------------------------------------------------------------|
Bb|-------------------------------------------------------------------|
Gb|------2-2-----2-2-----2-2-----2-2-----2-2-----2-2-----1-1-----2-2--|
Db|-------------------------------------------------------------------|
Ab|----4-------4-------0-------0-------2-------2-------2-------2------|
Db|--4-------4-------0-------0-------2-------2-------2-------2--------|

---

Song Order:

---

The order of the song for Kris (Guitar 1), is as follows:

0:00 - 0:33 / Intro Part One / x6
0:33 - 0:45 / Intro Part Two / x1
0:45 - 0:56 / Intro Part Three / x8
0:56 - 1:22 / Verse / x10
1:22 - 1:28 / Verse End / x4
1:28 - 1:38 / Intro Part One / x2
1:38 - 1:49 / Intro Part Three / x8
1:49 - 2:16 / Verse / x10
2:16 - 2:21 / Verse End / x4
2:21 - 2:32 / Intro Part One / x2
2:32 - 2:42 / Intro Part Three / x8
2:42 - 2:53 / Other Fill / x8
2:53 - 3:04 / Intro Part Three / x8
3:04 - 3:21 / Silence
3:21 - 3:44 / Outro / x8
3:44 - 4:20 / Silence

The order of the song for Darran (Guitar 1), is as follows:

0:00 - 0:33 / Intro Part One / x6
0:33 - 0:45 / Intro Part Two / x2
0:45 - 0:56 / Intro Part Three / x2
0:56 - 1:01 / Chorus End / x1
1:01 - 1:22 / Verse / x4
1:22 - 1:28 / Verse End / x8
1:28 - 1:38 / Intro Part One / x2
1:38 - 1:49 / Intro Part Three / x2
1:49 - 1:55 / Chorus End / x1
1:55 - 2:16 / Verse / x4
2:16 - 2:21 / Verse End / x8
2:21 - 2:32 / Intro Part One / x2
2:32 - 2:42 / Intro Part Three / x2
2:42 - 2:53 / Other Fill / x2
2:53 - 3:04 / Intro Part Three / x2
3:10 - 4:20 / Outro / x11

---

Lyrics:

---

As the sun sets on battlefields
I hope you can save me.
I hope you can save our wounded hearts.

Distance makes my heart grow colder.
Distance makes my heart grow older.
Just enough to cut the air from your lungs.

As the sun sets (we push and pull apart)
On battlefields (enough for this to end)
I hope you can save me (from ourselves).
I hope you can save us from ourselves.

Denial in the arms of our saviours,
And my heart is torn to pieces.
Just enough to cut the air from your lungs.

And paper cuts and bloody hands,
In the middle they would meet.

---

Comments? Questions? Suggestions? [email protected]


Текст, аккорды и табулатура для песни "Bend Your Arms To Look Like Wings", исполняет "Funeral For A Friend".
Используемые в песне аккорды можно найти в разделе Как брать аккорды. Аккорды для шестиструнной гитары. Другие песни можно найти на нашем сайте, воспользовавшись алфавитным указателем вверху страницы.


 
Ошибка в тексте? Выделите ошибку и нажмите Ctrl+Enter