By Sam Farrell
Mark almost had this right. But its a little different.  I know that this
version is different than the one in the book, but it sounds much more 
accurrate that just staying on one chord the whole time

drop d
* = palm mute
^ = bend

Riff A  (listen for timing and changes)
-------------------------------------------------------------
-------------------------------------------------------------
-11-11-11-11-11-11-11-11-11-11-11-11-11-11-11-11-11-11-11-11-
-9--9--9--9--9--0--0--0--0--0--9--9--9--9--9--12-12-12-12-12-
-9--9--9--9--9--0--0--0--0--0--9--9--9--9--9--12-12-12-12-12-
-9--9--9--9--9--0--0--0--0--0--9--9--9--9--9--12-12-12-12-12-


Riff 2 (VERSE 1)
-----------------------    ----------------------
-----------------------    ----------------------
-----------------------    ----------------------
-9----0----9----12-----    --2-2-2-2-2-2-2-2-2-2-
-9----0----9----12-----    --2-2-2-2-2-2-2-2-2-2-
-9----0----9----12-----    --2-2-2-2-2-2-2-2-2-2-



RIFF 3 (chorus) (Transcribed for 1 guitar. I just took
                 the lead part and put it in power chords)
------------------------------- 
-0-3-3-3-0-3-3-0----0-3-3-2~~--
-0-3-3-3-0-3-3-0----0-3-3-2~~--
-0-3-3-3-0-3-3-0----0-3-3-2~~--

INTERLUDE PART
-----------------------------------------
-----------------------------------------
-----------5^--3-------------------------
----3--6----------6--3-------------------
-4-----------------------4---------------
----------------------------------------- 


RIFF 4 (Verse 2 part)
--------------------------------------------
--------------------------------------------
----11^-11-----11^-11-----11^-11-----11^-11-
-9----------12---------9----------12--------
-9----------12---------9----------12--------
-9----------12---------9----------12--------


BRIDE
---------------------------------------
---------------------------------------
---------------------------------------
-0-0-0-0-0-0-0-0-0-0-0-0-3--3----------
-0-0-0-0-0-0-0-0-0-0-0-0-3--3----------
-0-0-0-0-0-0-0-0-0-0-0-0-3--3----------
-*-*-*-*-*-*-*-*-*-*-*-* 


SOLO
-7^---5-5-5-----9^-9-9^--9-9^---12^--
-------7-7---------------------------
-------------------------------------
-------------------------------------
-------------------------------------
-------------------------------------


Текст, аккорды и табулатура для песни "Last Time", исполняет "Fuel".
Используемые в песне аккорды можно найти в разделе Как брать аккорды. Аккорды для шестиструнной гитары. Другие песни можно найти на нашем сайте, воспользовавшись алфавитным указателем вверху страницы.


 
Ошибка в тексте? Выделите ошибку и нажмите Ctrl+Enter