Fuel - Jesus or a Gun
tab by d. scott
 
i got lazy on this one, the spacing of the numbers and bars
don't always match up to the timing in the song, but the notes are correct. 
not sure about the ending though...... 


Drop D tuning (D,A,D,G)

guitar only 

intro (w/bass):
G:|------------|----------|----------------|--------------|
D:|------------|----------|*--------------*|--------------|
A:|-r-r-r------|--r-r-r---|*--------------*|--r--r--r-----|
D:|-------0-00-|--------0-|-3-0-5-0-00-----|------------0-|


verse:
G:|---------------|-----------|---------|------------------|
D:|*--------------|----------*|---------|------------------|
A:|*--------------|-r-r-r----*|-------1-|(1)-1-1-1-1-1-1-2-|
D:|--3-0-5-0-00---|--------0--|-3-0-5---|------------------|

G:|----------------|-------------|---------------|------------|
D:|----------------|-------------|*--------------|-----------*|
A:|(2)-2-2-2-2-2-2-|-----r-r-r---|*--------------|-----------*|
D:|----------------|0-00-------0-|--3-0-5-0-00---|----------0-|

G:|---------|-------------------|-------------------|
D:|---------|-------------------|-------------------|
A:|-------1-|-(1)-1-1-1-1-1-1-2-|-(2)-2-2-2-2-2-2-3-|
D:|-3-0-5---|-------------------|-------------------|

G:|------------------|-------------------|
D:|------------------|-------------------|
A:|(3)-3-3-3-3-3-3-3-|-(3)-3-3-3-3-3-3-3-|
D:|------------------|-------------------|

chorus:
G:|-------------|--------------|-----------|-------------------|
D:|-------------|--------------|-----------|*-----------------*|
A:|-5---5-4-----|-3----3-2-----|-5--5-4----|*-----------------*|
D:|---0-----7-0-|---0------5-0-|---0-----7-|--5-5-5-5-5-5-5-5--|

G:|--------------------|-----------------|------------------|
D:|--------------------|-----------------|------------------|
A:|-3-3-3-3-3-3-3-3--2-|-1-1-0-0-0-/12--|-r---r---r---r----|
D:|--------------------|-----------------|------------------|

G:|--------|-------------|-----------------|----------------|
D:|--------|-------------|-----------------|----------------|
A:|-3------|-3h5-5-5---5-|-3-3-3-3-3-3-3-3-|3h5-5-5(3-2)*---|
D:|--------|-------------|-----------------|----------------|
				            *= 2nd chorus only                		
verse
chorus

bridge:
G:|----------------|------------------|-------------------|
D:|----------------|------------------|-------------------|
A:|-0--0-0-0-0-0-2-|-(2)-2-2-2-2-2-2-3|-(3)-3-3-3-3-3-3-3-|
D:|----------------|------------------|-------------------|

G:|-------------------|-----------------|-------------------|
D:|-------------------|-----------------|-------------------|
A:|-(3)-5-5-0-2-3-2-0-|-0-0-0-0-0-0-0-2-|-(2)-2-2-2-2-2-2-3-|
D:|-------------------|-----------------|-------------------|

G:|--------------------------------|-----------------|------------------|
D:|--------------------------------|-----------------|------------------|
A:|-(3)-3-3-5-3-3-5-/7-5-3-0-2-3-2-|-0-0-0-0-0-0-0-2-|(2)-2-2-2-2-2-2-3-|
D:|--------------------------------|-----------------|------------------|

G:|-----------------|----------------|----------------|------------------|
D:|-----------------|----------------|----------------|------------------|
A:|(3)3-3-3-3-3-3-4-|(4)-4-4-4-4-4-4-|(5)-5-5-5-5-5-5-|(6)-6-6-6-6-6-6-8-|
D:|-----------------|----------------|----------------|------------------|
  							                  3x
G:|-------------------|--------------------------|-------------------------------|
D:|-------------------|--------------------------|*-----------------------------*|
A:|(8)-8-8-8-8-8-8-10-|(10)-10-10-10-10-10-10-12-|*(12)-12-12-12-12-12-12-12()-*|
D:|-------------------|--------------------------|-------------------------------|
							          (slide last x)


G:|---------------|-----------|----------|------------------|
D:|*--------------|----------*|----------|------------------|
A:|*--------------|-r-r-r----*|--------1-|(1)-1-1-1-1-1-1-2-|
D:|-0-3-0-5-0-00--|-----------|0-3-0-5---|------------------|

G:|-----------------|--5-----------|--5------999-777-999-7777h9p7--|
D:|-----------------|5-------------|5----------------------------9|   
A:|(2)-2-2-2-2-2-2-3|----3-3-3-3-3-|----3-3------------------------|
D:|-----------------|--------------|-------------------------------|

G:|-------------|--------------|-----------|-------------------|
D:|-------------|--------------|-----------|*-----------------*|
A:|-5---5-4-----|-3----3-2-----|-5--5-4----|*-----------------*|
D:|---0-----7-0-|---0------5-0-|---0-----7-|--5-5-5-5-5-5-5-5--|

G:|--------------------|-----------------|--------------------------|
D:|--------------------|-----------------|--------------------------|
A:|-3-3-3-3-3-3-3-3--2-|-1-1-0-0-0-0-0-0-|/12-12-12-12-12-12-12-12-|
D:|--------------------|-----------------|--------------------------|

G:|-------------|--------------|-----------|-------------------|
D:|-------------|--------------|-----------|*-----------------*|
A:|-5---5-4-----|-3----3-2-----|-5--5-4----|*-----------------*|
D:|---0-----7-0-|---0------5-0-|---0-----7-|--5-5-5-5-5-5-5-5--|

G:|--------------------|-----------------|------------------|
D:|--------------------|-----------------|------------------|
A:|-3-3-3-3-3-3-3-3--2-|-1-1-0-0-0-/12--|-r---r---r---r----|
D:|--------------------|-----------------|------------------|
							5x
G:|--------|-------------|------------------|----------------|
D:|--------|-------------|*-----------------|---------------*|
A:|-3------|-3h5-5-5---5-|*-3-3-3-3-3-3-3-3-|3h5------------*|
D:|--------|-------------|------------------|-----0-0--0-----|


G:|----------------|------------------------|------|
D:|----------------|------------------------|------|
A:|3-3-3-3-3-3-3-3-|-3h5------------------3-|(3)---|
D:|----------------|-----0-0-00-400600700---|------|



Текст, аккорды и табулатура для песни "Jesus Or A Gun", исполняет "Fuel".
Используемые в песне аккорды можно найти в разделе Как брать аккорды. Аккорды для шестиструнной гитары. Другие песни можно найти на нашем сайте, воспользовавшись алфавитным указателем вверху страницы.


 
Ошибка в тексте? Выделите ошибку и нажмите Ctrl+Enter