Artist: Fuel 
Tabbed Song: Hemmorhage (In My Hands) 

Tabbed by: Johnny (originally by Steve Hendriksen [email protected] and 
Nick Kaywork, [email protected] and Rattice, [email protected]) 
E-Mail: [email protected] 

Close guys, but here is the rest. Any questions, complaints, e-mail [email protected] This tab is for all guitars Tuned 1/2 Step down. 

Intro:

Eb-----------------------------------------------------
Bb-----------------------------------------------------
Gb-----------------------9-----------------------------
Db--9--9--x---7--7--xx---9-----------------------------
Ab--9--9--x---7--7--xx---7-----------------------------
Eb--7--7--x---5--5--xx---------------------------------

Verse:

Eb-------0-----------0---------0----------0------------
Bb-----3---3--------3--3------3---3------3--3----------
Gb---0-------0-----0----0----0-----0----0----0---------
Db--4-------------4------4--4----------4------4--------
Ab-2-------------0--------------------0----------------
Eb-------------------------3---------------------------

 

 

 

Intro to chorus:

Eb-----------------------------------------------------
Bb-----------------------------------------------------
Gb-----------------------9--9-9-9-9--------------------
Db--9--9-x---7-7--7--x---9--9-9-9-9--------------------
Ab--9--9-x---7-7--7--x---7--7-7-7-7--------------------
Eb--7--7-x---5-5--5--x---------------------------------

 

Chorus is same thing but I think, not sure but add this after the 7-9-9 part:

Gb-7--7-------------------------
Db-7--7-------------------------
Ab-5--5-------------------------
Eb-------------------------------
Verse 2, is same as first but guitar 2 plays this:

Eb-----------------------------------------------------
Bb-----------------------------------------------------
Gb-----------------------------------------------------
Db-9----7----5----7------------------------------------
Ab-9----7----5----7------------------------------------
Eb-7----5----3----5------------------------------------

Bridge:

Ab-----------4-5-4-5-7-9-11-
Eb-3-5-7-5-7-----------------

Outro:

Eb-----------------------------------------------------
Bb-----------------------------------------------------
Gb-6-7-7-6-6-7-7-6-6---6----6---6-6-6------------------
Db-----------------------7---7-------------------------
Ab-----------------------------------------------------
Eb-----------------------------------------------------


Текст, аккорды и табулатура для песни "Hemmorhage", исполняет "Fuel".
Используемые в песне аккорды можно найти в разделе Как брать аккорды. Аккорды для шестиструнной гитары. Другие песни можно найти на нашем сайте, воспользовавшись алфавитным указателем вверху страницы.


 
Ошибка в тексте? Выделите ошибку и нажмите Ctrl+Enter