Fuel
Bad Day

Tabbed by Cliff Wan [email protected]

(Intro)
G----------------------------------------------------------------------------
D----------------------------------------------------------------------------
A------------------5-----------------------------------5---------------------
E-5-------2----------------5--------5---------2------------------5-----------

(Drums Come In)							   Main
--------------------------------------------------------|--------------------
--------------------------------------------------------|--------------------
--5----------------5-----------------5-------2-2/12h14-|--------------4-5-4-
-----0--2---0-2--------0--2---0-2--------0--------------|-5---5-5---5-------5

-----------------------------------------------------------------------------
-----------------------------------------------------------------------------
-------------4-5-4---5--5-5--5--5-5----------------------------4-5-4---------
-2--2-2---2--------5----------------5--5-5--5--5-5--5--5-5---5-------5--2--2-

-----------------------------------------------------------------------------
-----------------------------------------------------------------------------
-----4-5-4---5--5-5-----------------------------3--5---------------5---------
2--2-------5--------1----3----5---5-5---5--5-5--------0--2---0-2--------0---2

-----------------------------------------------------------------------------
-----------------------------------------------------------------------------
-------5-------2---2/12h14--------------4-5-4--------------4-5-4---5--5-5--5
-0-2-------0------------------5--5-5---5-------5--2--2-2--2-------5----------
							Outro
----------------------------------------|------------------------------------
----------------------------------------|------------------------------------
5--5---------------4-5-4-----2------5---|--------------------4-5-4-----------
------5---5-5---5--------5--------------|--0/12----5--5-5--5-------5---2---2-

-----------------------------------------------------------------------------
-----------------------------------------------------------------------------
------4-5-4----5--5-5--------------------------------------------------------
2--2--------5---------1----3------5------------------------------------------

====


Текст, аккорды и табулатура для песни "Bad Day", исполняет "Fuel".
Используемые в песне аккорды можно найти в разделе Как брать аккорды. Аккорды для шестиструнной гитары. Другие песни можно найти на нашем сайте, воспользовавшись алфавитным указателем вверху страницы.


 
Ошибка в тексте? Выделите ошибку и нажмите Ctrl+Enter