Tabbed by:Ethan Robinson
Second Walk 
By John Frusciante
Shadows Collide With People
Tuning: Standard

e|--------------|
B|---12b14------|
G|--------------|
D|--------------|
A|--------------|
E|--------------|
 
             
e|---0-0---0-0-0---0-0---0-0-0---2-2---2-2-2---2-2---2-2-2---|
B|---2-2---2-2-2---0-0---0-0-0---2-2---2-2-2---2-2---2-2-2---|
G|---2-2---2-2-2---1-1---1-1-1---2-2---2-2-2---2-2---2-2-2---| Play
D|---2-2---2-2-2---2-2---2-2-2---4-4---4-4-4---4-4---4-4-4---| Through
A|---0-0---0-0-0---2-2---2-2-2---4-4---4-4-4---4-4---4-4-4---| Song
E|-----------------0-0---0-0-0---2-2---2-2-2---2-2---2-2-2---|


Solo 1
e|------12-14-14-14----12-14-14-14----12-14-14-14----12-14-14-14------|
B|--------------------------------------------------------------------|
G|--------------------------------------------------------------------| x 2
D|--------------------------------------------------------------------|
A|--------------------------------------------------------------------|
E|--------------------------------------------------------------------|

e|---14-12-9----14-12-9----14-12-9----14-12-9---|   |----------12--------|
B|----------------------------------------------|   |-12--12b14---12b14--|
G|----------------------------------------------|x2 |--------------------|
D|----------------------------------------------|   |--------------------|
A|----------------------------------------------|   |--------------------|
E|----------------------------------------------|   |--------------------|
     (really                        fast)

Solo 2
e|--------------------------------------------------------------------|
B|----13b14------13b14----13b14---13b14--14--14--14--14---------------|
G|--------------------------------------------------------------------|
D|--------------------------------------------------------------------|
A|--------------------------------------------------------------------|
E|--------------------------------------------------------------------|

e|---------------------------------------------------14---------------|
B|--------14/10------------------14---17---14---17--------14----------|
G|---11----------11--9--11--------------------------------------------|
D|--------------------------------------------------------------------|
A|--------------------------------------------------------------------|
E|--------------------------------------------------------------------|

e|------------12--------------|
B|----------------------------|
G|---13b14----------11--------|   End
D|----------------------------|
A|----------------------------|
E|----------------------------|


Текст, аккорды и табулатура для песни "Second Walk", исполняет "Frusciante John".
Используемые в песне аккорды можно найти в разделе Как брать аккорды. Аккорды для шестиструнной гитары. Другие песни можно найти на нашем сайте, воспользовавшись алфавитным указателем вверху страницы.


 
Ошибка в тексте? Выделите ошибку и нажмите Ctrl+Enter