Artist: John Frusciante
Album: Shadows Collide With People
Song: Regret

Just a plain and simple song from 'Shadows'. You can work the intro out for yourself, 
it is the right chords that are written for it.

Tabbed by Aske Saxe, Denmark
[email protected]

Tuning: standard
Chords used:
C	x32010
E	x22100
G	355433
F	133211
Am	x02210

Intro
  C
E-----------------------------------------------------------------------|
B---------1----------------1----------------1----------------1------1---|
G-------0---0------------0---0------------0---0------------0---0--------|
D-----2-------2--------2-------2--------2-------2--------2-------2------|
A-3-3-----------3--3-3-----------3--3-3-----------3--3-3----------------|
E-----------------------------------------------------------------------|

  Am           C                Am               C
E---------0---|------------0---|------------0---|------------0----------|
B-------1---1-|----------1---1-|----------1---1-|----------1---1--------|
G-----2-------|--------0-------|--------2-------|--------0--------------|
D---2---------|------2---------|------2---------|------2----------------|
A-0-----------|0-2-3-----------|3-2-0-----------|0-2-3------------3-2---|
E-------------|----------------|----------------|-----------------------|

  G             F                    Am
E----------3---|------------1-------|-----0-----0-----0-----0-----------|
B--------3---3-|----------1---1-----|-----1-----1-----1-----1-----------|
G------4-------|--------2-------2---|-----2-----2-----2-----2-----------|
D----5---------|------3-----------3-|-----2-----2-----2-----2-----------|
A--------------|--------------------|-0-0---0-0---0-0---0-0-------------|
E-3------------|3-2-1---------------|-----------------------------------|

Verse
C   G        Am
I regret my past

F          C G         (F F E E)
Stay alone, stay alone


Текст, аккорды и табулатура для песни "Regret", исполняет "Frusciante John".
Используемые в песне аккорды можно найти в разделе Как брать аккорды. Аккорды для шестиструнной гитары. Другие песни можно найти на нашем сайте, воспользовавшись алфавитным указателем вверху страницы.


 
Ошибка в тексте? Выделите ошибку и нажмите Ctrl+Enter