-=-=-=-=-=-=-=-=-=-=-=-=-=--=-=-=-=-
John Frusciante - Murdereres 2:41
-=-=-=-=-=-=-=-=-=-=-=-=-=--=-=-=-=-
L & M: John Frusciante
Track 10 From:
To Record Only Water For Ten Days
2001 Niandra Lades BMI Music.
-=-=-=-=-=-=-=-=-=-=-=-=-=--=-=-=-=-

Intro: Drums 

E|---------------------12----------------|
B|--12--------------14----12-------------|
G|------13-14--14------------14-13-14-14-|
D|---------------------------------------|
A|---------------------------------------|
e|---------------------------------------|

E|------------------------------------------------|
B|------------------------------------------------|
G|------------------------------------------------|
D|------------------------------------------------|
A|-9-----------9---9---------------------9-9-9999-|
e|------------------------------------------------|

E|---------------------------------------|
B|--12--------------12-14-12-------------|
G|------13-14--14------------14-13-14-14-|
D|---------------------------------------|
A|---------------------------------------|
e|---------------------------------------|

E|------------------------------------------------|
B|------------------------------------------------|
G|------------------------------------------------|
D|------------------------------------------------|
A|-9-----------9---9---------------------9-9-9999-|
e|------------------------------------------------|

-=-=-=-=-=-=-=-=-=-=-=-=-=--=-=-=-=-=-=-=-=-=-=-=-=-=-=-=-=-=--=-=-=-=-=-=-=-

Two guitars arranged to be played by one.


   E           F           E           C#
E|-----------|-----------|-----------|---------|
B|-----------|-----------|-----------|---------|
G|-13--------|-14--------|-13--------|-10------|
D|-----------|-----------|-----------|---------|
A|-----------|-----------|-----------|---------|
e|-12--------|-14--------|-12--------|--9------|


These are only the notes that John's use, no the exact rhythm of it.

   D     E      F#   D    E     G#  F#   D#    G#  E F#   D   E    C#
E|-----------------|-------------------|---12-----------|------------|
B|---7-----9---10--|---7----9---12--10-|-------12--9/10-|---7---9--6-|
G|-----------------|-------------------|----------------|------------|
D|-----------------|-------------------|----------------|------------|
A|-5-----7------9--|-5----7-----11---9-|-------11--7/9--|-5---7----4-|
e|-----------------|-------------------|-11-------------|------------|


-=-=-=-=-=-=-=-=-=-=-=-=-=--=-=-=-=-=--=-=-=-=-=-=-=-=-=-=-=-=-=--=-=-=-=-=-
Produce By John Frusciante
Mixed By Jimmy Boyled
Mixing Assisted By Brian Grimmel
Mastered By Vlado Meller At Sony Music Studio, New York.
-=-=-=-=-=-=-=-=-=-=-=-=-=--=-=-=-=-=--=-=-=-=-=-=-=-=-=-=-=-=-=--=-=-=-=-=-


Текст, аккорды и табулатура для песни "Murderers", исполняет "Frusciante John".
Используемые в песне аккорды можно найти в разделе Как брать аккорды. Аккорды для шестиструнной гитары. Другие песни можно найти на нашем сайте, воспользовавшись алфавитным указателем вверху страницы.


 
Ошибка в тексте? Выделите ошибку и нажмите Ctrl+Enter