E||----------------------9--12--|--------------------------------|
B||-------12--9--10--10---------|--12--10--9--10--12--9--10--10--|
G||-----------------------------|--------------------------------|
D||-------4------4---4----------|--4---4---4--4---4------4---4---|
A||-----------------------------|--------------------------------|
E||--2-----------2---2------2---|-----------------2------2---2---|

          ( this song uses arpeggios )
                                                               
e----------------------9--12--|--------------------------------|
a-------12--9--10--10---------|--12--10--9--10--12--9--10--10--|
g-----------------------------|--------------------------------|
d-------4------4---4----------|--4---4---4--4---4------4---4---|
a-----------------------------|--------------------------------|
e--2-----------2---2------2---|-----------------2------2---2---|


                                                            
-----------------------------|-----------------------------|
--9--10--9--9---7--7--9--10--|--10--10--10--7--7-----9--9--|
--9--11--9--10---------------|-----------------------------|
--9--11--9--11---------------|-----------------------------|
--7--9---7--11--5--5--7--9---|--9---9---9---5--5--5--7--7--|
-----------------------------|-----------------------------|


                                                                 
--------------12------12--------|-------------------------------|
--12--10--10-----------------9--|--10--10--10--10--10--7-----7--|
--------------------------------|-------------------------------|
--------------------------------|-------------------------------|
--9---9---9---------------7--7--|--9---9---9---9---9---5--5--5--|
--------------10--10--10--------|-------------------------------|


                                                     
----------------------|----------------------9--12--|
-------9----9---------|-------12--9--10--10---------|
------------10--------|-----------------------------|
------------11--------|-------4------4---4----------|
--7----7----11--------|-----------------------------|
----------------------|--2-----------2---2------2---|


                                                               
--------------------------------|----------------------9--12--|
--12--10--9--10--12--9--10--10--|-------12--9--10--10---------|
--------------------------------|-----------------------------|
--4---4---4--4---4------4---4---|-------4------4---4----------|
--------------------------------|-----------------------------|
-----------------2------2---2---|--2-----------2---2------2---|


                                                              
--------------------------------||---------------------------|
--12--10--9--10--12--9--10--10--||--------9-----10-----9-----|
--------------------------------||*--------------------------|
--4---4---4--4---4------4---4---||*--------------------------|
--------------------------------||---7-------9------7-----9--|
-----------------2------2---2---||---------------------------|


                                                             
-----------------------------||----------------------9--12--|
--12--10-----9-----10--7-----||-------12--9--10--10---------|
-----------------------8----*||-----------------------------|
-----------------------9----*||-------4------4---4----------|
----------7-----9------9-----||-----------------------------|
-----------------------------||--2-----------2---2------2---|


                                                               
--------------------------------|-----------------------------|
--12--10--9--10--12--9--10--10--|--9--10--9--9---7--7--9--10--|
--------------------------------|--9--11--9--10---------------|
--4---4---4--4---4------4---4---|--9--11--9--11---------------|
--------------------------------|--7--9---7--11--5--5--7--9---|
-----------------2------2---2---|-----------------------------|


                                                               
-----------------------------|--------------12------12--------|
--10--10--10--7--7-----9--9--|--12--10--10-----------------9--|
-----------------------------|--------------------------------|
-----------------------------|--------------------------------|
--9---9---9---5--5--5--7--7--|--9---9---9---------------7--7--|
-----------------------------|--------------10--10--10--------|


                                                                   
-------------------------------|----------------------|----------||
--10--10--10--10--10--7-----7--|-------9----9---------|----------||
-------------------------------|------------10--------|----------||
-------------------------------|------------11--------|----------||
--9---9---9---9---9---5--5--5--|--7----7----11--------|----------||
-------------------------------|----------------------|----------||


cheers any problems or corecctions leave a message. this is how it is played. tom


Текст, аккорды и табулатура для песни "Murderers", исполняет "Frusciante John".
Используемые в песне аккорды можно найти в разделе Как брать аккорды. Аккорды для шестиструнной гитары. Другие песни можно найти на нашем сайте, воспользовавшись алфавитным указателем вверху страницы.


 
Ошибка в тексте? Выделите ошибку и нажмите Ctrl+Enter