frozen fire, never.
 Tabbed by tim lindberg, [email protected]
  
never
by frozen fire

intro 6 times
(clean)

--9-9--7-7--5-5--7-7-----------------------------------9-9--7-7--5-5--7-7---------
----------------------------------------------------------------------------------
----------------------------------------------------------------------------------
------------------------------------------------------------------------------

bass for song   comes in on third time of intro

----------------------------------------------------------------------------
----------------------------------------------------------------------------
------------4-4--2-2--0-0--2-2--4-4--2-2--0-0--2-2--------------

verse riff 4 times
(full distortion) (palm muted)

---------------------------------------------------------------------------------
---------------------------------------------------------------------------------
--7-7--5-5--4-4--5-5--7-7--5-5--4-4--5-5----------------7-7--5-5--4-4--5-5--7-7--
5-5--4-4--5-5----------------5-5--3-3--2-2--3-3--5-5--3-3--2-2--3-3--------------

chorus 6 times
(full distortion)

---------------------------------------------------------------------------------
---------------------------------------------------------------------------------
-5-5-5-5-6-6-6-6-4-4-4-4-4-4-4-4-----------------------5-5-5-5-6-6-6-6-4-4-4-4-4-
4-4-4-----------------------3-3-3-3-4-4-4-4-2-2-2-2-2-2-2-2----------------------

verse 2 same as first (palm muted)

---------------------------------------------------------------------------------
---------------------------------------------------------------------------------
--7-7--5-5--4-4--5-5--7-7--5-5--4-4--5-5----------------7-7--5-5--4-4--5-5--7-7--
5-5--4-4--5-5----------------5-5--3-3--2-2--3-3--5-5--3-3--2-2--3-3--------------

chorus again

---------------------------------------------------------------------------------
---------------------------------------------------------------------------------
-5-5-5-5-6-6-6-6-4-4-4-4-4-4-4-4-----------------------5-5-5-5-6-6-6-6-4-4-4-4-4-
4-4-4-----------------------3-3-3-3-4-4-4-4-2-2-2-2-2-2-2-2----------------------

outro  (palm muted) (4 times)

---------------------------------------------------------------------------------
---------------------------------------------------------------------------------
--7-7--5-5--4-4--4-4--7-7--5-5--4-4--4-4----------------7-7--5-5--4-4--4-4--7-7--
5-5--4-4--4-4----------------5-5--3-3--2-2--2-2--5-5--3-3--2-2--2-2--------------

have fun!!!

 
:: Ultimate Guitar Archive :: 
http://www.ultimate-guitar.com 





Текст, аккорды и табулатура для песни "Never", исполняет "Frozen Fire".
Используемые в песне аккорды можно найти в разделе Как брать аккорды. Аккорды для шестиструнной гитары. Другие песни можно найти на нашем сайте, воспользовавшись алфавитным указателем вверху страницы.


 
Ошибка в тексте? Выделите ошибку и нажмите Ctrl+Enter