For you...
by Frozen Fire
music by Tim Lindberg
All guitars and bass
are tuned to dropped-D
Guitar 1= Tim
Guitar 2= Jon
Bass= Alex


intro
Distortion 
Guitar 1
|E|------------------------------------------------------------|
|B|------------------------------------------------------------|
|G|------------------------------------------------------------|
D------------------------------------------------------------|
|A|----3-2-0-0-0-0----7-5---7-7-7-7----------------------------|
D-2-2-2-2-2-2-2--5-5-5-5-7-7-7-7-----------------------------|

verse 1
Distortion
Guitar 1
|E|------------------------------------------------------------|
|B|------------------------------------------------------------|
|G|------------------------------------------------------------|
D------------------------------------------------------------|
|A|--2223332222222222-5557777777777777-------------------------|
D--2222222222222222-5555557777777777-------------------------|
p.m. _________________________________

verse 1
Distortion 
Guitar 2
|E|------------------------------------------------------------|
|B|------------------------------------------------------------|
|G|------------------------------------------------------------|
D------------------------------------------------------------|
|A|--2-----2-----------5-----7---------------------------------|
D--2-----2-----------5-----7---------------------------------|

verse 1
bass
|G|------------------------------------------------------------|
D------------------------------------------------------------|
|A|------------------------------------------------------------|
D--2-----2-----------5-----7---------------------------------|

Chorus 1
Guitar 1
Heavy distortion
|E|------------------------------------------------------------|
|B|------------------------------------------------------------|
|G|------------------------------------------------------------|
D--2222222222222222-55555577777777000------------------------|
|A|--2223332222222222-55533377777777000------------------------|
D--2222222222222222-55555577777777000------------------------|

Chorus 1
Guitar 2
Heavy Distortion
|E|------------------------------------------------------------|
|B|------------------------------------------------------------|
|G|------------------------------------------------------------|
D--2-2-2-2-2-2-2-2--5-5-5-7-7-7-7-0-0------------------------|
|A|--2-2-2-2-2-2-2-2--5-5-5-7-7-7-7-0-0------------------------|
D--2-2-2-2-2-2-2-2--5-5-5-7-7-7-7-0-0------------------------|

Chorus 1
Bass
|G|------------------------------------------------------------|
D------------------------------------------------------------|
|A|------------------------------------------------------------|
D--2---2---2---2----5---5---7---7-0--------------------------|

Guitar Solo
Heavy distortion
[really fast]
Guitar 1
|E|------------------------------------------------------------|
|B|------------------------------------------------------------|
|G|---10-979797-555575-4-4444-54---10-979797-555575-4-4444-5422|
D777--7------------------------777--7------------------------|
|A|------------------------------------------------------------|
D------------------------------------------------------------|

rhythm during solo
Guitar 2
Heavy Distortion
|E|------------------------------------------------------------|
|B|------------------------------------------------------------|
|G|------------------------------------------------------------|
D--2-----2-----------5-----7---2-----2-----------5-----7-----|
|A|--2-----2-----------5-----7---2-----2-----------5-----7-----|
D--2-----2-----------5-----7---2-----2-----------5-----7-----|

Rhythm During Solo
Bass
|G|------------------------------------------------------------|
D------------------------------------------------------------|
|A|------------------------------------------------------------|
D--2-----2-----------5-----7---2-----2-----------5-----7-----|

Chorus 2
Guitar 1
Heavy distortion
|E|------------------------------------------------------------|
|B|------------------------------------------------------------|
|G|------------------------------------------------------------|
D--2222222222222222-55555577777777000------------------------|
|A|--2223332222222222-55533377777777000------------------------|
D--2222222222222222-55555577777777000------------------------|

Chorus 2
Guitar 2
Heavy Distortion
|E|------------------------------------------------------------|
|B|------------------------------------------------------------|
|G|------------------------------------------------------------|
D--2-2-2-2-2-2-2-2--5-5-5-7-7-7-7-0-0------------------------|
|A|--2-2-2-2-2-2-2-2--5-5-5-7-7-7-7-0-0------------------------|
D--2-2-2-2-2-2-2-2--5-5-5-7-7-7-7-0-0------------------------|

Chorus 2
Bass
|G|------------------------------------------------------------|
D------------------------------------------------------------|
|A|------------------------------------------------------------|
D--2---2---2---2----5---5---7---7-0--------------------------|

Verse 2
Guitar 1
|E|------------------------------------------------------------|
|B|------------------------------------------------------------|
|G|------------------------------------------------------------|
D------------------------------------------------------------|
|A|--2223332222222222-5557777777777777-------------------------|
D--2222222222222222-5555557777777777-------------------------|
p.m. _________________________________

Verse 2
Distortion 
Guitar 2
|E|------------------------------------------------------------|
|B|------------------------------------------------------------|
|G|------------------------------------------------------------|
D------------------------------------------------------------|
|A|--2-----2-----------5-----7---------------------------------|
D--2-----2-----------5-----7---------------------------------|

Verse 2
bass
|G|------------------------------------------------------------|
D------------------------------------------------------------|
|A|------------------------------------------------------------|
D--2-----2-----------5-----7---------------------------------|

Chorus 3
Guitar 1
Heavy distortion
|E|------------------------------------------------------------|
|B|------------------------------------------------------------|
|G|------------------------------------------------------------|
D--2222222222222222-55555577777777000------------------------|
|A|--2223332222222222-55533377777777000------------------------|
D--2222222222222222-55555577777777000------------------------|

Chorus 3
Guitar 2
Heavy Distortion
|E|------------------------------------------------------------|
|B|------------------------------------------------------------|
|G|------------------------------------------------------------|
D--2-2-2-2-2-2-2-2--5-5-5-7-7-7-7-0-0------------------------|
|A|--2-2-2-2-2-2-2-2--5-5-5-7-7-7-7-0-0------------------------|
D--2-2-2-2-2-2-2-2--5-5-5-7-7-7-7-0-0------------------------|

Chorus 3
Bass
|G|------------------------------------------------------------|
D------------------------------------------------------------|
|A|------------------------------------------------------------|
D--2---2---2---2----5---5---7---7-0--------------------------|


Текст, аккорды и табулатура для песни "For You", исполняет "Frozen Fire".
Используемые в песне аккорды можно найти в разделе Как брать аккорды. Аккорды для шестиструнной гитары. Другие песни можно найти на нашем сайте, воспользовавшись алфавитным указателем вверху страницы.


 
Ошибка в тексте? Выделите ошибку и нажмите Ctrl+Enter