By: Nouwsh -> [email protected]

Please mail me if there is something wrong or if you know the complete tab.

x = palm muted
/ = slide

(Intro)
|----2-3--3--3-2-0----2-3---2---3-2-0------------------------------|
|---x----x--x--------x-----x---x-----------------------------------|
|------------------------------------------------------------------|2X
|--2---------------------------------------------------------------|
|--2---------------------------------------------------------------|
|--0---------------------------------------------------------------|

(verse) (guitar 1)
|-------------------------------------------------------------------|
|-------------------------------------------------------------------|
|-------------------------------------------------------------------|
|-1111-1111--------1111-1111-------------77-77---------77-77--------|2X
|-9-9--9-9--000000-9-9--9-9--7-7-7-7-7-7-55-55--000000-55-55-0-0-0-0|
|-7-7--7-7--000000-7-7--7-7--5-5-5-5-5-5-33-33--000000-33-33-0-0-0-0|
            xxxxxx           x x x x x x        xxxxxx       x x x x 

(verse) (guitar 2) (im not wishing anymore...)
|------------------------------------------------------------------|
|---7-8--7---8-7----7-8---7--8-7----3-5--3--5-3---3-5--3--5-3------|
|----------------9---------------9--------------5------------5-----|
|-9-----9---9------9----9---9------5---5---5-----5---5--5----------|
|------------------------------------------------------------------|
|------------------------------------------------------------------|

(verse) (guitar 1) (this is because of you i dont believe...)
|-------------------------------------------------------------------|
|-------------------------------------------------------------------|
|-------------------------------------------------------------------|
|-1111-1111--------1111-1111-------------77-77---------77-77--------|
|-9-9--9-9--000000-9-9--9-9--7-7-7-7-7-7-55-55--000000-55-55-0-0-0-0|
|-7-7--7-7--000000-7-7--7-7--5-5-5-5-5-5-33-33--000000-33-33-0-0-0-0|
            xxxxxx           x x x x x x        xxxxxx       x x x x

(рrй-chorus) 
|-------------------------------------------------------------------|
|-------------------------------------------------------------------|
|-------------------------------------------------------------------|
|--12/11-9/11-12-11-9/11-12-9---------------------------------------|4x
|--9--9--9-9--------9-9---------------------------------------------|
|-------------------------------------------------------------------|

(Chorus) 
|-------------------------------------------------------------------|
|-------------------------------------------------------------------|
|-5-4-2---5-4-2---5-4-2-4---000000----------------------------------|
|-------5-------4---------2-----------------------------------------|4X
|-------------------------------------------------------------------|
|-------------------------------------------------------------------|


Текст, аккорды и табулатура для песни "The After Dinner Payback", исполняет "From Autumn To Ashes".
Используемые в песне аккорды можно найти в разделе Как брать аккорды. Аккорды для шестиструнной гитары. Другие песни можно найти на нашем сайте, воспользовавшись алфавитным указателем вверху страницы.


 
Ошибка в тексте? Выделите ошибку и нажмите Ctrl+Enter