-------------------------------------------------------------------------------
		  Take her to the music store- From autmumn to ashes
-------------------------------------------------------------------------------
Tabbed by: Steve


start with

e|-------|
B|-------|
G|-------|
D|-2-----|
A|-2-----|
E|-0-----|

Intro:

e|---------------------------------------------------------------------------
B|---8-8-7-----7-8-10-10-8-7-----8-8-7-----7-7-8-10-8-7----8-8-7-----7-8-10-8
G|---------9-9-------------------------9-9-----------------------9-9---------
D|---------------------------------------------------------------------------
A|-7---------------------------7---------------------------------------------
E|-------------------------------------------------------7-------------------

e|---------------------------------|
B|-7-7----8-8-7-----7-8-10-10-8-7--|
G|--------------9-9----------------|
D|---------------------------------|
A|------7--------------------------|
E|---------------------------------|

Intro part 2: Im not going to put the strummign u can figure it out

e|-----------------|
B|-----------------|
G|-9---------------|
D|-9--10--10--12---|
A|-7--10--10--12---|
E|-----8---8--10---|

riff 1: 2x
e|-----------------------------------------------------------------------------|
B|-----------------------------------------------------------------------------|
G|--795--57-79-911-1112-1214-14--7912--14-1412-1211-119-911-119-9|
D|--795--57-79-911-1112-1214-14--7912--14-1412-1211-119-911-119-9|
A|-----------------------------------------------------------------------------|
E|-----------------------------------------------------------------------------|

riff 2: 4x (not going put strumming for chords)
e|---------------------------------------------------------------|
B|---------------------------------------------------------------|
G|-9-------------------------------------------------------------|
D|-9-------------------------------------------------------------|
A|-7--7-9-10-9h10p9-7-----7-9-10-9h10p9-7----7-9-10-9h10p9-7-----|
E|--------------------10------------------8----------------------|

riff 3:
e|---------------------------------------------------------------------------
B|---------------------------------------------------------------------------
G|--9-9-9-9/5--57-79-911-1112-1214-14--7912--14-1412-1211-119-911-
D|--9-9-9-9/5--57-79-911-1112-1214-14--7912--14-1412-1211-119-911-
A|---------------------------------------------------------------------------
E|---------------------------------------------------------------------------

e|---------------------------------------------------------------------------
B|---------------------------------------------------------------------------
G|-119-9--795--57-79-911-1112-1214-14--7912--14-1412-1211-119-9-
D|-119-9--795--57-79-911-1112-1214-14--7912--14-1412-1211-119-9-
A|---------------------------------------------------------------------------
E|---------------------------------------------------------------------------

e|-------------|
B|-------------|
G|-11-119-9--|
D|-11-119-9--|
A|-------------|
E|-------------|

riff 4: 2x ( not going to put strumming or picking)

e|---|----------|---|------------|
B|---|----------|---|------------|
G|-9-|--5-4---4-|-9-|------------|
D|-9-|------7---|-9-|--5-4---4---|
A|-7-|----------|-7-|------7-----|
E|---|----------|---|------------|

riff 5: 8x

e|------------------------------|
B|------0-----------------------|
G|----0---0---0-----0-----0-----|
D|--4-------4-----4-----4-------|
A|--------------5---------------|
E|0-------------------3---------|

riff 6: 5x(not going to put strumming)

e|-----------|
B|-----------|
G|----7------|
D|-9--7--5---|
A|-9--5--5---|
E|-7-----3---|

then play this : (not going to put strumming)
e|-------|
B|-------|
G|-------|
D|-2-----|
A|-2-----|
E|-0-----|

riff 7: 4x( not going to put strumming)

e|--------------------------|
B|--------------------------|                         
G|--------------------------|
D|-2---2-3-2-0-2-0---0------|
A|-2---------------3---3-1--|
E|-0------------------------|

fill: 4x (not going to put strumming)

e|-------|----------------------------------------------------------|
B|-------|--1--(on last time play this one note real fast-----------|
G|-------|----------------------------------------------------------|
D|-2--5--|----------------------------------------------------------|
A|-2--5--|----------------------------------------------------------|
E|-0--3--|----------------------------------------------------------|

ending: 4x( once again im not putting strumming)

                               end with this
e|---------------|           |------|
B|---------------|           |------|
G|---------------|           |------|
D|-2--5--2--5--5-|           |-2----|
A|-0--3--0--3--3-|           |-0----|
E|-0--3--0--3--3-|           |-0----|


Текст, аккорды и табулатура для песни "Take Her To The Music Store", исполняет "From Autumn To Ashes".
Используемые в песне аккорды можно найти в разделе Как брать аккорды. Аккорды для шестиструнной гитары. Другие песни можно найти на нашем сайте, воспользовавшись алфавитным указателем вверху страницы.


 
Ошибка в тексте? Выделите ошибку и нажмите Ctrl+Enter