song: Take Her To The Music Store 
artist:Fom Autumn To Ashes 
album:To Bad Your Beautiful 
tabbed by: goth_man_mat

bass tuning: standard (E,A,D,G)

@:......................play a lot
~:......................hold note
h:......................hammer on 

Intro
G:-----------------------:|
D:-----------------------:|
A:--7-73-3-3-3/5-5---:|
E:-----------------------:|

Pre- Verse 
G:-----------------------:|
D:-----------------------:|
A:--7-7-7-7-73-3-3-3-3-3-3-3-3-3/5-5-5-5-5--:|
E:-----------------------:|

Verse
G:-----------------------:|
D:-----------------------:|
A:--5-5-5-5-3-3-3-3-3-3-3-3-3-5-5-5-5-10-10-12-12-12-12-10-10-10-9-9-9--:|
E:-----------------------:|

G:-----------------------:|
D:-----------------------:|     {Play this after} 
A:-----------------------:|
E:--0-@---------------:|

Chorus 
G:-----------------------:|
D:-----------------------:|      {first time guitar only}
A:--7h9-10-9-7-5h79-10-9-3h7-9-10-9--:| 
E:-----------------------:|

G:-----------------------:|
D:-----------------------:|      
A:-----------------------:|
E:--0@-----------------:|

G:-----------------------:|    -------------------------------------|
D:-----------------------:|                                                 |
A:------10-10-10-10-9-9-9-9-7-7-7-7-9-9-9-9--:|             | 
E:--0@-----------------:|			 |
				                 |
G:-----------------------:|                                                 |  {x2}
D:-----------------------:|      		                 |
A:------7-7-7-7-5-5-5-5-3-3-3-3-5-5-5-5--:|                    |
E:--0@-----------------:|			 |
		     -------------------------------------|
G:-----------------------:|
D:-----------------------:| 
A:-----------------------:|
E:--0~-----------------:|

G:------------------------:|
D:------------------------:|      {x4}
A:--35-5/7h9-10-9-5--:|
E:------------------------:|

G:-----------------------:|
D:-----------------------:|      
A:-----------------------:|
E:--0@-----------------:|

G:-----------------------:|
D:-----------------------:| 
A:--7-9-7-5-7-5-3-5-3-2--:|
E:------------------------:|

G:-------------|--------:|
D:-------------|--------:|      {x4}    {hold the 4th time 
A:------3-3----|---3~-------:|
E:--0----------|---------:|

G:-------------------------:|
D:-------------------------:|      {x8}     
A:-----------------3-3-3-3-3-3--:|
E:--0-0-0-0-0-0---------:|

G:--------:|
D:--------:|      {end with this}
A:--------:|
E:--0@--:|          

                             thats it
      it is a sweet song and it is easy to play and mosh to. 
                            ROCK ON!!!


Текст, аккорды и табулатура для песни "Take Her To The Music Store", исполняет "From Autumn To Ashes".
Используемые в песне аккорды можно найти в разделе Как брать аккорды. Аккорды для шестиструнной гитары. Другие песни можно найти на нашем сайте, воспользовавшись алфавитным указателем вверху страницы.


 
Ошибка в тексте? Выделите ошибку и нажмите Ctrl+Enter