...=palm mute ;=let ring /=slide

listen to the song for the rythem. one part is missing

e----------------------------------------------------------------------------|
b----------------------------------------------------------------------------|
g--9-9-9-9-9-9-9-9---------------------------9-9-9-9-9-9-9-9-----------------|
d----------------------------------------------------------------------------|
a--7-7-7-7-7-7-7-7---------------------------7-7-7-7-7-7-7-7-----------------|
e--------------------0-0-0-0-0-0-0-0-0-0-0-0-----------------0-0-0-0-0-0-0-0-|
                     .......................                 ................

e----------------------------------------------------------------------------|
b----------------------------------------------------------------------------|
g--9-9-9-9-----------------9-9-9-9-------------------------------------------|
d----------------------------------------------------------------------------|
a--7-7-7-7-----------------7-7-7-7-------------------------------------------|
e-----------0-0-0-0-0-0-0-----------0-0-0-0-0-0-0----------------------------|
            .............           .............

e----------------------------------------------------------------------------|
b----------------------------------------------------------------------------|
g--9-9-9-9--12-12-12-12--5-5-5-----------------------------------------------|
d----------------------------------------------------------------------------|
a--7-7-7-7--10-10-10-10--3-3-3-----------------------------------------------|
e----------------------------------------------------------------------------|

guitar 1
e----------------------------------------------------------------------------|
b----------------------------------------------------------------------------|
g--2-3-2---2-3-2----2-3-2---2-3-2---4-5-4---4-5-4---4-5-4---4-5-4------------|
d--------3--------3-------3-------3-------5-------5-------5-------5----------|
a----------------------------------------------------------------------------|
e----------------------------------------------------------------------------|

guitar 2
e----------------------------------------------------------------------------|
b----------------------------------------------------------------------------|
g----------------------------------------------------------------------------|
d----------------------------------------------------------------------------|
a----------------------------------------------------------------------------|
e--0-0-0--0-0-0--0-0-0--0-0-0--0-0-0--0-0-0--0-0-0--0-0-0--------------------|
   .....  .....  .....  .....  .....  .....  .....  .....

e----------------------------------------------------------------------------|
b------5-6-5----5-6-5--5------------12------------12-------------------------|
g-----------------------------------15------------15-------------------------|
d--7-7-------7--------7------------------------------------------------------|
a----------------------------------------------------------------------------|
e--------------------------0-0-0-0-------0-0-0-0-----------------------------|
   ...       ..       ..   .......       .......

e----------------------------------------------------------------------------|
b----------------------------------------------------------------------------|
g----------------------------------------------------------------------------|
d----------------------------------------------------------------------------|
a--2.-2.-2.-2.-2.-2.-2.-2.---------------------------------------------------|
e--0.-0.-0.-0.-0.-0.-0.-0.---------------------------------------------------|

e----------------------------------------------------------------------------|
b----------------------------------------------------------------------------|
g----------------------------------------------------------------------------|
d----------------------------------------------------------------------------|
a--2-2-2-2-2-2-2-2--2-2-2-2-2-2-2-2--2;--------------------------------------|
e--0-0-0-0-0-0-0-0--0-0-0-0-0-0-0-0--0;--------------------------------------|

clean
e----------------------------------------------------------------------------|
b----------------------------------------------------------------------------|
g-------------------0-0-0-0-0-0---------------------0------------------------|
d------4-4/5/4-----------------------4/5/4------------4----------------------|
a----2---------2-------------------2-------2------------2--------------------|
e--0-------------0---------------3-----------3-------------------------------|

e----------------------------------------------------------------------------|
b----------------------------------------------------------------------------|
g--------------------5-5-5-5-5-5-4-4-4-4-4-----------------------------------|
d------------------------------------------5-5-5-5-5-5-2-2-2-2-2-2-----------|
a-----------------2;---------------------------------------------------------|
e--0-0-0-0-0-0-0--0;---------------------------------------------------------|
   .............

e----------------------------------------------------------------------------|
b----------------------------------------------------------------------------|
g---------------------5-5-5-4-4-4--------------------------------------------|
d-----------------4;--------------5-5----------------------------------------|
a-----------------3;---------------------------------------------------------|
e--0-0-0-0-0-0-0-------------------------------------------------------------|
   .............

e----------------------------------------------------------------------------|
b----------------------------------------------------------------------------|
g------4-5-4---4-5-4--4------------------------------------------------------|
d----------------------------------------------------------------------------|
a--0-0-------0-------0-------------------------------------------------------|
e----------------------------------------------------------------------------|


Текст, аккорды и табулатура для песни "Royal Crown-vs-blue Duchess", исполняет "From Autumn To Ashes".
Используемые в песне аккорды можно найти в разделе Как брать аккорды. Аккорды для шестиструнной гитары. Другие песни можно найти на нашем сайте, воспользовавшись алфавитным указателем вверху страницы.


 
Ошибка в тексте? Выделите ошибку и нажмите Ctrl+Enter