SONG/WERE GOING OUT TONIGHT
BAND/FRENZAL RHOMB
[email protected]
this is 100% right

INTRO ALL GUITAR
(THERES NOTING ON TV)
G:------------------------
D:----4--2-4--2-4--2-4--2-
A:-----24---24---24---24--
E:5432----2----2----2-----

(SPENT ALL DAY IN BED)
G:---------------------
D:-7--5----5-7--5-7--5-
A:0-57-0-57-0-57-0-57--
E:---------------------

(THERES MUST BE SOMETHING TO DO)
G:---------------------
D:-4--2-4--2-4--2-4--2-
A:--24---24---24---24--
E:2----2----2----2-----

(SOMETHING MUST BE DONE)
G:-----------
D:-----------
A:2>5>2>5>7>-
E:-----------

(PUT ON MUCH WORSE TODAY)
G:-----------------
D:-7--5---5-7--5---
A:0-57-057-0-57----
E:--------------55-

(CANT'T BE MUCH WORSE TODAY)
G:---------------------
D:-4--2-4--2-4--2-4--2-
A:--24---24---24---24--
E:2----2----2----2-----

(WE START TO FIGHT)
G:-----------
D:-----------
A:2>5>2>5>7>-
E:-----------

(WE'RE GOING OUT TONIGHT)
G:-----------------
D:----5------------
A:-5---7-55-7>7654-
E:5-55--5----------

BASS SOLO
G:-------
D:7--7---
A:-5--5--
E:--3--3-

GUITER SOLO
G:---------------------------
D:----------------------7>7>-
A:----5>4----7>97----5>4-----
E:5555---5555----5555--------

NOW THE TIME HAS COME
G:--------------
D:--------------
A:--------5---5-
E:1---1---------

THERE'LL BE SOME TROBLE THERE
G:-----------------
D:-----------------
A:2>5>2>7>--2>-----
E:--------0>--3>5>-

WE'RE GOING OUT TONIGHT
G:------------
D:-5----------
A:5-55--5-----
E:----75-335>-

WE ARE GOING OUT TONIGHT
G:---------------------------------------------
D:----55----------------------------4545454545-
A:5555--55-5555-----5555---------345-----------
E:-------------88-55----3333-5555--------------

END
G:----
D:18/-
A:17/-
E:----

HAVE FUN


Текст, аккорды и табулатура для песни "Were Going Out Tonight", исполняет "Frenzal Rhomb".
Используемые в песне аккорды можно найти в разделе Как брать аккорды. Аккорды для шестиструнной гитары. Другие песни можно найти на нашем сайте, воспользовавшись алфавитным указателем вверху страницы.


 
Ошибка в тексте? Выделите ошибку и нажмите Ctrl+Enter