FIRE AND WATER - Free
Words and music by Paul Rodgers and Andy Fraser

This band needs a lot more credit, especially Paul Kossoff, who is the best
guitarist to have ever lived...

PLEASE RATE THIS TAB, ITS MY FIRST EVER, AND I PROBABLY RATED YOURS...
'thank you' in advance, if your not gonna rate it, 'F*CK YOU!' in advance :)

Intro

------------------------------------------------------------------------
------------------------------------------------------------------------
-----7--9-----12--11-----9-----12--14------9-----9-----7----------------
-----7--7------0---0-----7------0---0------7-----7-----7-------7--------
-----0--0-----10---9-----0-----10--12------0-----0-----0-------7--------
---------------------------------------------------------------5--------


Verse

------------------------------------------------------------------------
------------------------------------------------------------------------
------------------------------------------------------------------------
---------------------------------7-/-9--9-------------------------------
---7-/-9--9-------7-/-9--9-------5-/-7--7-------7-/-9--9----------------
---5-/-7--7-------5-/-7--7----------------------5-/-7--7----------------


------------------------------------------------------------------------
------------------------------------------------------------------------
------------------------------------------------------------------------
---------------------------------7-/-9--9-------9-----7-----------------
---7-/-9--9-------7-/-9--9-------5-/-7--7-------7-----5-----7-----------
---5-/-7--7-------5-/-7--7----------------------------------5-----------


Chorus

------------------------------------------------------------------------
------------------------------------------------------------------------
---4----4-------7----7-------4----4--------4----4-----------------------
---4----4-------7----7-------4----4--------4----4-----------------------
---2----2-------5----5-------0----0--------2----2-----------------------
------------------------------------------------------------------------

------------------------------------------------------------------------
------------------------------------------------------------------------
---7-------------------------9------------------------------------------
---7------------7------------9-------------9----------------------------
---5------------7------------7-------------9----------------------------
----------------5--------------------------7----------------------------

------------------------------------------------------------------------
-------------------------------------------3----------------------------
---9------------7------------6-------------2----------------------------
---7------------5------------4-------------2----------------------------
-------------------------------------------2----------------------------
-------------------------------------------0----------------------------


Solo - this solo looks a lot, but it's not really...

------------------------------------------------------------------------
-----10h12--12/15---15~----------10--9----------------------------------
----------------------------------------11----------9^----9^----9^------
------------------------------------------------------------------------
------------------------------------------------------------------------
------------------------------------------------------------------------
------------------------------------------------------------------------

------------------------------------------------------------------------
----10-------10-------------10------------------------------------------
-------9^-------9^------7---9-------------------------------------------
--------------------------------9---------------------------------------
------------------------------------------------------------------------
------------------------------------------------------------------------

--------10^(full)-----(10)/7---10------------------------10-------------
----7-------------------------------10^(full)---~~~~--------(10)^(full)-
------------------------------------------------------------------------
------------------------------------------------------------------------
------------------------------------------------------------------------
------------------------------------------------------------------------

------------------------------------------------------------------------
----9---(9)^(full)--------10--------------------------------------------
----9---(9)^(full)--------------9^(bend up and down alot or something)--
------------------------------------------------------------------------
------------------------------------------------------------------------
------------------------------------------------------------------------

------------------------------------------------17---------17-------------
-------------------------15--------17^(full)-------17------17^(full)-*x3*-
---7--9-----------16--------16--------------------------------------------
---------9----------------------------------------------------------------
--------------------------------------------------------------------------
--------------------------------------------------------------------------

--------------------------------------------------------------------------
----17^(full)~----(17)/-15-------17---------------------------------------
--------------------------------------------------------------------------
--------------------------------------------------------------------------
--------------------------------------------------------------------------
--------------------------------------------------------------------------

----------------------------------------------17-------------------------
----15-/-14--------------15-------17^(full)------17^(full)---------------
------------16--------16-----16------------------------------------------
-------------------------------------------------------------------------
-------------------------------------------------------------------------
-------------------------------------------------------------------------

----17-------------------------------------------------------------------
--------17-/-15------17---15------15^(full)------------------------------
-----------------16-----------16-----------------------------------------
-------------------------------------------------------------------------
-------------------------------------------------------------------------
-------------------------------------------------------------------------

------17---------17----------17--------17-------17---17---17---~~~~~~~~~~
--17^----17^--------17^----------17^---17^------17^--17^--17^--~~~~~~~~~~
---------------------------------------------------------------~~~~~~~~~~
---------------------------------------------------------------~~~~~~~~~~
---------------------------------------------------------------~~~~~~~~~~
---------------------------------------------------------------~~~~~~~~~~

There you go, Bloody hell it takes a long time to tab...

Enjoy...Carl
[email protected]                    Please Rate it...


Текст, аккорды и табулатура для песни "Fire And Water", исполняет "Free".
Используемые в песне аккорды можно найти в разделе Как брать аккорды. Аккорды для шестиструнной гитары. Другие песни можно найти на нашем сайте, воспользовавшись алфавитным указателем вверху страницы.


Слушать онлайн Fire And Water


FreeFire And Water на Яндекс.Музыке


 
Ошибка в тексте? Выделите ошибку и нажмите Ctrl+Enter