Song: All Right Now (intro)
Artist: Free
Tuning: Normal
Tabber: Neptune
Email: [email protected]

Key:

| /  slide up
|   slide down
| h  hammer-on
| p  pull-off
| ~  vibrato
| +  harmonic
| x  Mute note

This is the correct intro but you'll have to work out the timing. Its not too
hard since the intro's clean and the vocal's don't come in until the 2nd, or
was it 3rd measure. 

And its the same the whole way through. Working out where to come in on the
vocals is tricky...and the actually is tricky too!

Like the other tabs, the opening chord is an A but its not a straight forward
one. It'll take abit of stretching and pinky strength to do it but here it is
anyway:

Intro: 

Riff1:
e|--5---------5-------------------5-------------|
B|--5-----3---5-----3-3--3-3-3-3--5-------------|
G|--2-----2---2-----0-0--2-2-2-2--2-------------|
D|--2-----4---2-----4-4--4-4-4-4--2-------------|
A|--0---0-----0---0---------------0-------------|
E|----------------------------------------------|

Riff2:
    
e|---5---------5-------------------------5------------|
B|---5-----3---5-----3-3-3--3-3-3-3--2---5------------|
G|---2-----2---2-----0-0-0--0-2-2-2--2---2------------|
D|---2-----4---2-----4-4-4--4-4-4-4--2---2------------|
A|---0---0-----0---0---------------------0------------|
E|----------------------------------------------------|
     All Right Now...Its All Right Now....

I forgot the exact wording but just improvise and make it sound wild.

For the rest of the intro is Riff2 about 2 or 3x. The rest of the song follows
Riff2 repeatedly. There are 2 guitars and the other plays Riff1 i think.

For the Chorus, its essentially Riff2 again but this on top too, played by the
other guitar:

e|---------------------------------------------------|
B|---------------------------------------------------|
G|---9--9--9---------------------7~----7-7~-/-9------|
D|---7--7--7---------------------5~----4-4~-/-7------|
A|------------9-7------------------------------------|
E|---------------------------------------------------|
     All Right Now, Baby yeah, its all right now...


There you go. Good Luck. Its an amazing song so don't give up.

And questions or comments. Send them to my email.

Neptune


Текст, аккорды и табулатура для песни "All Right Now", исполняет "Free".
Используемые в песне аккорды можно найти в разделе Как брать аккорды. Аккорды для шестиструнной гитары. Другие песни можно найти на нашем сайте, воспользовавшись алфавитным указателем вверху страницы.


Слушать онлайн All Right Now


FreeAll Right Now на Яндекс.Музыке


 
Ошибка в тексте? Выделите ошибку и нажмите Ctrl+Enter