Franz Ferdinand

Matinee

tabbed by:stuart mcwilliam
___________________________________________
intro drums

then

Riff
E|---------------------------------------------------------|
B|---------------------------------------------------------|
G|---------------------------------------------(2)---2-1---|
D|----(2)---(2)---(2)---(2)-----------------4-4----4-----4-|  
A|-4-4---4-4---4-4---4-4----2-2-4-5-2-2-4-5----------------|
E|---------------------------------------------------------|

E|---------------------------------------------------------|
B|---------------------------------------------------------|
G|---------------------------------------------(2)---2-1---|
D|----(2)---(2)---(2)---(2)-----------------4-4----4-----4-|  
A|-4-4---4-4---4-4---4-4----2-2-4-5-2-2-4-5----------------|
E|---------------------------------------------------------|

Verse 1:
C#m                 F#
You take your white finger,
A
slide the nail under
                           C#m
the top and bottom buttons of
   F#
my blazer,

relax the fraying wool,
                 A
slacken ties and I'm
                   E
not to look at you in the shoe, 
*B
 but the eyes. 
         D *
find the eyes	


Chorus:
   B
So find me and follow me 

through corridors, refectories 
    A
and files you must follow, leave this academic factory 
         B
you will find me in the matinee, 

the dark of the matinee is mine. 
    A
its better in the matinee,

the dark of the matinee is mine
        E
yes its mine


Riff


Verse 2: same as 1
I time every journey
to bump into you
acidently I
charm you and tell you
of the boys i hate
all the girls i hate
all the words i hate
all the clothes i hate
how I'll never be anything I hate
You smile, mention something that you like, 
how you'd have a happy life 
if you did the things you like. 


Chorus


Middle:
C#m            B
So I'm on BBC2 now, 
A
telling Terry Wogan how I made it. 
C#m               B
What I made is unclear, 
A
but his deference is and his laughter is.
A                               E
My words and smile are so easy now. 
    *Bm
Yes, It's easy now.
             D *
Yes its easy now

Chorus x2

then finish on

E|---|
B|-5-|
G|-6-|
D|-6-|
A|-4-|
E|---|


Текст, аккорды и табулатура для песни "Matinee", исполняет "Franz Ferdinand".
Используемые в песне аккорды можно найти в разделе Как брать аккорды. Аккорды для шестиструнной гитары. Другие песни можно найти на нашем сайте, воспользовавшись алфавитным указателем вверху страницы.


 
Ошибка в тексте? Выделите ошибку и нажмите Ctrl+Enter