Artist:- Frankenstein Drag Queens from the Planet 13
Song  :- The Devil Made Me Do it

E -----------------------------------------------------------------------------|
B -----------------------------------------------------------------------------|
G --------------------5b--5--3--5--3-------------------------------------------|
D ----------------------------------------------------------7b--7--5--7--5-----|
A --5--5--5--7--5----------------------2--2--2--5--2---------------------------|
E --3--3--3--5--3----------------------0--0--0--3--0---------------------------|

E -----------------------------------------------------------------------------|
B -----------------------------------------------------------------------------|
G -----------------------------------------------------------------------------|
D -----------------------------------------------------------------------------|
A --5--5--5--7--5----------------------2--2--2--5--2---------------------------|
E --3--3--3--5--3----------------------0--0--0--3--0---------------------------|

E -----------|
B -----------|
G -----------|
D -----------|
A ---2-------|
E ---0-------|

The Devil made me do it and I'll do it again

A ---2-------|
E ---0-------|

The Devil made me do it and I'll do it again

E -----------|
B -----------|
G -----------|
D -----------|
A ---2-------|
E ---0-------|

E ------------------------------------------------------------------------------|
B ------------------------------------------------------------------------------|
G --------------------5b--5--3--5--3--------------------------------------------|
D ----------------------------------------------------------7b--7--5--7--5------|
A --5--5--5--7--5----------------------2--2--2--5--2----------------------------|
E --3--3--3--5--3----------------------0--0--0--3--0----------------------------|

E ------------------------------------------------------------------------------|
B ------------------------------------------------------------------------------|
G ------------------------------------------------------------------------------|
D ------------------------------------------------------------------------------|
A --5--5--5--7--5----------------------2--2--2--5--2----------------------------|
E --3--3--3--5--3----------------------0--0--0--3--0----------------------------|

Don't no the solo so try and figure out the solo.


Текст, аккорды и табулатура для песни "The Devil Made Me Do It", исполняет "Frankenstein Drag Queens From The Planet 13".
Используемые в песне аккорды можно найти в разделе Как брать аккорды. Аккорды для шестиструнной гитары. Другие песни можно найти на нашем сайте, воспользовавшись алфавитным указателем вверху страницы.


 
Ошибка в тексте? Выделите ошибку и нажмите Ctrl+Enter