This is how i play the song sounds perfect 2 me n so iv been told.Enjoy this and please 
it thanx.comments suggestions anything [email protected]
Standard tuning:

Intro:(*-palm mute)
E:-------------------------------------------------|
B:-------------------------------------------------|
G:----------------------------------------------9--|
D:----------------------------------------------9--| 6 times dont play chord
A:---------------------------6*-7*-0*-0*-0*-0*--7--| at end of 6th time
E:-0*-0*-0*-5*-5*-5*-5*-5*-7*----------------------|

Verse:(*-palm mute)
E:------------------------------------------------|
B:------------------------------------------------|
G:----------------------------------------------9-| Strum chord every 2nd time
D:----------------------------------------------9-|
A:-7*-7*-7*-7*-7*-7*-7*-7*---6*-7*-0*-0*-0*-0*--7-|
E:-0*-0*-0*-5*-5*-5*-5*-5*-7*---------------------|
'You know im not the little boy'
Pre-Chorus:
E:----------------------------------|
B:----------------------------------| 2nd time strum last chord 5 times only.
G:----------------------------------|
D:-6-6-6-6-6-6-6-6--7-7-7-7-7-7-7-7-|
A:-6-6-6-6-6-6-6-6--7-7-7-7-7-7-7-7-|
E:-4-4-4-4-4-4-4-4--5-5-5-5-5-5-5-5-|

Chorus:
E:--------------------|
B:--------------------|
G:222------4-44-66666-|
D:222-2-22-4-44-66666-| 2 times(u can work out strumming 4 urself)
A:000-2-22-2-22-44444-|
E:----0-00------------|
'stacy cant u see'
E:--------------------|
B:--------------------|
G:222------5-55-66666-|
D:222-2-22-5-55-66666-|
A:000-2-22-3-33-44444-|
E:----0-00------------|
'i no i mite be rong'
E:-----------------------|
B:-----------------------|
G:22222222-4444444-----9-|
D:22222222-4444444-----9-|
A:00000000-2222222-----7-|
E:-----------------------|

intro twice:
guitar 1 plays verse;guitar 2 plays this:

guitar 2:
E:--0----0----0----0--|
B:-0-0--2-2--4-4--2-2-|
G:4----2----4----2----| 8 times
D:--------------------|
A:--------------------|
E:--------------------|

Pre-chorus again.
chorus again.

SOLO:
E:----------------------------------------------------|
B:----------------------------------------------------|
G:-5h7-9-7----------------5h7-9-7----4h5-4h5-4h5-4---|
D:--------9-5-777-5-9-7-5--------9-5------------------|
A:----------------------------------------------------|
E:----------------------------------------------------|

E:-------------------------------------------------------|
B:------------------------4/54/54/54-/--7/87/87/87-|
G:-5h7-9-7----------------4/54/54/54-/--8/98/98/98-|
D:--------9-5-777-5-9-7-5--------------------------------|
A:-------------------------------------------------------|
E:-------------------------------------------------------|

2nd Chorus and chords for solo:
E:-----------------------|
B:-----------------------|
G:555-------7-77-99-99---| 3 times
D:555-5-55--7-77-99-99---|
A:333-5-55--5-55-77-77---|
E:----3-33---------------|

then:
E:-----------------|
B:-----------------|
G:5555555-77777777-
D:5555555-77777777-
A:3333333-55555555-
E:-----------------

2nd chorus again.

then end off with:
'i no i mite be wrong'
E:-----------------|
B:-----------------|
G:5555555-77777777-
D:5555555-77777777-
A:3333333-55555555-
E:-----------------

And ther u hav it cool song nice 2 play enjoy n please r8 it thanx.
key:
*-palm mute
h-hammer on
/-slide up
-slide down


Текст, аккорды и табулатура для песни "Stacys Mom", исполняет "Fountains Of Wayne".
Используемые в песне аккорды можно найти в разделе Как брать аккорды. Аккорды для шестиструнной гитары. Другие песни можно найти на нашем сайте, воспользовавшись алфавитным указателем вверху страницы.


 
Ошибка в тексте? Выделите ошибку и нажмите Ctrl+Enter