---------------------------------------------------------------------
		Fountains of Wayne - Stacy's Mom
---------------------------------------------------------------------

This song is hilarious and easy. And this tab should be totally accurate
Standard tuning
Tabbed by: Liberty Spiked

Intro:
e|----------------------------------0-|
B|-----------------|----------------0-|
G|-----------------|------------------|
D|-----------------|------------------|
A|-2-2-2-7-7-7-7-7-|---6-7--7-7-7-7---|
E|-0-0-0-5-5-5-5-5-|-7------5-5-5-5---| (play 6 times)
   ********************************
3rd thru 6th time repeat: stacy's mom, has got it going on

Verse:
e|-----------------|-----------------|-----------------|---------------0-|
B|-----------------|-----------------|-----------------|---------------0-|
G|-----------------|-----------------|-----------------|-----------------|
D|-----------------|-----------------|-----------------|-----------------|
A|-2-2-2-7-7-7-7-7-|---6-7-7-7-7-7-7-|-2-2-2-7-7-7-7-7-|---6-7-7-7-7-7---|
E|-0-0-0-5-5-5-5-5-|-7-----5-5-5-5-5-|-0-0-0-5-5-5-5-5-|-7-----5-5-5-5---|
  ********************************************************************
  stacy can I come over after scho-o-o-o-l?              (after school)

e|-----------------|-----------------|-----------------|---------------0-|
B|-----------------|-----------------|-----------------|---------------0-|
G|-----------------|-----------------|-----------------|-----------------|
D|-----------------|-----------------|-----------------|-----------------|
A|-2-2-2-7-7-7-7-7-|---6-7-7-7-7-7-7-|-2-2-2-7-7-7-7-7-|---6-7-7-7-7-7---|
E|-0-0-0-5-5-5-5-5-|-7-----5-5-5-5-5-|-0-0-0-5-5-5-5-5-|-7-----5-5-5-5---|
   ********************************************************************
  we can hang around by the p-p-p-po-o-o-o-ool         (hang by the pool)

e|-----------------|-----------------|-----------------|---------------0-|
B|-----------------|-----------------|-----------------|---------------0-|
G|-----------------|-----------------|-----------------|-----------------|
D|-----------------|-----------------|-----------------|-----------------|
A|-2-2-2-7-7-7-7-7-|---6-7-7-7-7-7-7-|-2-2-2-7-7-7-7-7-|---6-7-7-7-7-7---|
E|-0-0-0-5-5-5-5-5-|-7-----5-5-5-5-5-|-0-0-0-5-5-5-5-5-|-7-----5-5-5-5---|
   ********************************************************************
  did your mom get back from her business trip?         (business trip)
e|-----------------|-----------------|-----------------|-----------------|
B|-----------------|-----------------|-----------------|-----------------|
G|-----------------|-----------------|-----------------|-----------------|
D|-----------------|-----------------|-----------------|-----------------|
A|-2-2-2-7-7-7-7-7-|---6-7-7-7-7-7-7-|-2-2-2-7-7-7-7-7-|---6-7-7-7-7-7-7-|
E|-0-0-0-5-5-5-5-5-|-7-----5-5-5-5-5-|-0-0-0-5-5-5-5-5-|-7-----5-5-5-5-5-|
   *****************************************************
  Is she there or is she trying to give me the sli-i-i-ip (give me the slip)

Prechorus:
e|-----------------|-----------------|-----------------|-----------------|
B|-----------------|-----------------|-----------------|-----------------|
G|-----------------|-----------------|-----------------|-------------r---|
D|-2-2-2-2-2-2-2-2-|-7-7-7-7-7-7-7-7-|-2-2-2-2-2-2-2-2-|-7-7-7-7-7---e---|
A|-2-2-2-2-2-2-2-2-|-7-7-7-7-7-7-7-7-|-2-2-2-2-2-2-2-2-|-7-7-7-7-7---s---|
E|-0-0-0-0-0-0-0-0-|-5-5-5-5-5-5-5-5-|-0-0-0-0-0-0-0-0-|-5-5-5-5-5---t---|
  You know I'm not the little boy     I'm all grown up now 
           That I used to be                        baby can't you see?
               

Chorus:
e|-0-0--0--0-0-0---|---------------|-0-0--0--0-0-0---|---------------|
B|-2-2--0--0-0-0-4-|-4-4-4---5--5--|-2-2--0--0-0-0-4-|-4-4-4---5--5--|
G|-2-2--1--1-1-1-4-|-4-4-4/6-6--6--|-2-2--1--1-1-1-4-|-4-4-4/6-6--6--|
D|-2-2--2--2-2-2-4-|-4-4-4---6--6--|-2-2--2--2-2-2-4-|-4-4-4---6--6--|
A|-0-0--2--2-2-2-2-|-2-2-2---4--4--|-0-0--2--2-2-2-2-|-2-2-2---4--4--|
E|------0--0-0-0---|---------------|------0--0-0-0---|---------------|

Stacy's mom has got it goin on, she's all I want and I've waited for so long

e|-0-0--0--0-0-0-0-|---------------|-----------------|---------------0-|
B|-2-2--0--0-0-0-0-|---------5--5--|-----------------|---------------0-|
G|-2-2--1--1-1-1-1-|-5-5-5---6--6--|-----------------|-----------------|
D|-2-2--2--2-2-2-2-|-4-4-4/6-6--6--|-7-7-7-7-7-7-7-7-|-9-9-9-9-9-9-9---|
A|-0-0--2--2-2-2-2-|-3-3-3---4--4--|-7-7-7-7-7-7-7-7-|-9-9-9-9-9-9-9---|
E|------0--0-0-0-0-|---------------|-5-5-5-5-5-5-5-5-|-7-7-7-7-7-7-7---|
  
  Stacy can't you see you're just   I know it might be wrong but
             not the girl for me, 		I'm in love with stacy's mom

e|----------------------------------0-|-----------------|----------------0-|
B|-----------------|----------------0-|-----------------|----------------0-|
G|-----------------|------------------|-----------------|------------------|
D|-----------------|------------------|-----------------|------------------|
A|-2-2-2-7-7-7-7-7-|---6-7--7-7-7-7---|-2-2-2-7-7-7-7-7-|---6-7--7-7-7-7---|
E|-0-0-0-5-5-5-5-5-|-7------5-5-5-5---|-0-0-0-5-5-5-5-5-|-7------5-5-5-5---| 
   ********************************     ********************************
  Stacys mom has got it going on         Stacys mom has got it going on

Verse 2: (*another guitar enters)

e|-----0-------0---|-----0-------0---|-----0-------0---|-----0-------0---|
B|---0---0---2---2-|---4---4---2---2-|---0---0---2---2-|---4---4---2---2-|
G|---------2-------|-4-------2-------|---------2-------|-4-------2-------|
D|-2---------------|-----------------|-2---------------|-----------------|
A|-----------------|-----------------|-----------------|-----------------|
E|-----------------|-----------------|-----------------|-----------------|

e|-----------------|-----------------|-----------------|---------------0-|
B|-----------------|-----------------|-----------------|---------------0-|
G|-----------------|-----------------|-----------------|-----------------|
D|-----------------|-----------------|-----------------|-----------------|
A|-2-2-2-7-7-7-7-7-|---6-7-7-7-7-7-7-|-2-2-2-7-7-7-7-7-|---6-7-7-7-7-7---|
E|-0-0-0-5-5-5-5-5-|-7-----5-5-5-5-5-|-0-0-0-5-5-5-5-5-|-7-----5-5-5-5---|
  ********************************************************************
  stacy do you remember when I mowed your lawn?		(mowed your lawn)

e|-----0-------0---|-----0-------0---|-----0-------0---|-----0-------0---|
B|---0---0---2---2-|---4---4---2---2-|---0---0---2---2-|---4---4---2---2-|
G|---------2-------|-4-------2-------|---------2-------|-4-------2-------|
D|-2---------------|-----------------|-2---------------|-----------------|
A|-----------------|-----------------|-----------------|-----------------|
E|-----------------|-----------------|-----------------|-----------------|

e|-----------------|-----------------|-----------------|---------------0-|
B|-----------------|-----------------|-----------------|---------------0-|
G|-----------------|-----------------|-----------------|-----------------|
D|-----------------|-----------------|-----------------|-----------------|
A|-2-2-2-7-7-7-7-7-|---6-7-7-7-7-7-7-|-2-2-2-7-7-7-7-7-|---6-7-7-7-7-7---|
E|-0-0-0-5-5-5-5-5-|-7-----5-5-5-5-5-|-0-0-0-5-5-5-5-5-|-7-----5-5-5-5---|
   ********************************************************************
  Your mom came out with just a towel o-o-o-o-on        (towel on)

e|-----0-------0---|-----0-------0---|-----0-------0---|-----0-------0---|
B|---0---0---2---2-|---4---4---2---2-|---0---0---2---2-|---4---4---2---2-|
G|---------2-------|-4-------2-------|---------2-------|-4-------2-------|
D|-2---------------|-----------------|-2---------------|-----------------|
A|-----------------|-----------------|-----------------|-----------------|
E|-----------------|-----------------|-----------------|-----------------|

e|-----------------|-----------------|-----------------|---------------0-|
B|-----------------|-----------------|-----------------|---------------0-|
G|-----------------|-----------------|-----------------|-----------------|
D|-----------------|-----------------|-----------------|-----------------|
A|-2-2-2-7-7-7-7-7-|---6-7-7-7-7-7-7-|-2-2-2-7-7-7-7-7-|---6-7-7-7-7-7---|
E|-0-0-0-5-5-5-5-5-|-7-----5-5-5-5-5-|-0-0-0-5-5-5-5-5-|-7-----5-5-5-5---|
   ********************************************************************
  I could tell she liked me from the way she stared     (way she stared)

e|-----0-------0---|-----0-------0---|-----0-------0---|-----0-------0---|
B|---0---0---2---2-|---4---4---2---2-|---0---0---2---2-|---4---4---2---2-|
G|---------2-------|-4-------2-------|---------2-------|-4-------2-------|
D|-2---------------|-----------------|-2---------------|-----------------|
A|-----------------|-----------------|-----------------|-----------------|
E|-----------------|-----------------|-----------------|-----------------|

e|-----------------|-----------------|-----------------|-----------------|
B|-----------------|-----------------|-----------------|-----------------|
G|-----------------|-----------------|-----------------|-----------------|
D|-----------------|-----------------|-----------------|-----------------|
A|-2-2-2-7-7-7-7-7-|---6-7-7-7-7-7-7-|-2-2-2-7-7-7-7-7-|---6-7-7-7-7-7-7-|
E|-0-0-0-5-5-5-5-5-|-7-----5-5-5-5-5-|-0-0-0-5-5-5-5-5-|-7-----5-5-5-5-5-|
   *****************************************************
  N the way she said Ya missed a spot over the-e-e-e-re (spot over there)

Prechorus:
e|-----------------|-----------------|-----------------|-----------------|
B|-----------------|-----------------|-----------------|-----------------|
G|-----------------|-----------------|-----------------|-------------r---|
D|-2-2-2-2-2-2-2-2-|-7-7-7-7-7-7-7-7-|-2-2-2-2-2-2-2-2-|-7-7-7-7-7---e---|
A|-2-2-2-2-2-2-2-2-|-7-7-7-7-7-7-7-7-|-2-2-2-2-2-2-2-2-|-7-7-7-7-7---s---|
E|-0-0-0-0-0-0-0-0-|-5-5-5-5-5-5-5-5-|-0-0-0-0-0-0-0-0-|-5-5-5-5-5---t---|
  And I know that you think its just   But since your dad walked out your
                      a fantasy                 mom could use a guy like me

Chorus:
e|-0-0--0--0-0-0---|---------------|-0-0--0--0-0-0---|---------------|
B|-2-2--0--0-0-0-4-|-4-4-4---5--5--|-2-2--0--0-0-0-4-|-4-4-4---5--5--|
G|-2-2--1--1-1-1-4-|-4-4-4/6-6--6--|-2-2--1--1-1-1-4-|-4-4-4/6-6--6--|
D|-2-2--2--2-2-2-4-|-4-4-4---6--6--|-2-2--2--2-2-2-4-|-4-4-4---6--6--|
A|-0-0--2--2-2-2-2-|-2-2-2---4--4--|-0-0--2--2-2-2-2-|-2-2-2---4--4--|
E|------0--0-0-0---|---------------|------0--0-0-0---|---------------|

Stacy's mom has got it goin on, she's all I want and I've waited for so long

e|-0-0--0--0-0-0-0-|---------------|-----------------|---------------0-|
B|-2-2--0--0-0-0-0-|---------5--5--|-----------------|---------------0-|
G|-2-2--1--1-1-1-1-|-5-5-5---6--6--|-----------------|-----------------|
D|-2-2--2--2-2-2-2-|-4-4-4/6-6--6--|-7-7-7-7-7-7-7-7-|-9-9-9-9-9-9-9---|
A|-0-0--2--2-2-2-2-|-3-3-3---4--4--|-7-7-7-7-7-7-7-7-|-9-9-9-9-9-9-9---|
E|------0--0-0-0-0-|---------------|-5-5-5-5-5-5-5-5-|-7-7-7-7-7-7-7---|
  
  Stacy can't you see you're just   I know it might be wrong but
             not the girl for me, 		I'm in love with stacy's mom

Solo: (note, the other guitar plays in the background -- 2nd line)
SOLOIST
e|----------------|----------------|------------------|------------------|
B|----------------|----------------|------------------|------------------|
G|-5h7/9-7--------|----------------|-5-7-9-7----------|------------------|
D|----------9-5-7-|-7-7-7-5-9--7-5-|----------9-5-7/9-|-9/109/109/109-|
A|----------------|----------------|------------------|------------------|
E|----------------|----------------|------------------|------------------|

BACKGROUND
e|-----------------|---------0-----|---------------|----------------|
B|-----------------|---------0-----|---------------|----------------|
G|-5-5-----------7-|-7-7-7/9-9-----|-5-5---------4-|-4-4-4-4-4--4-4-|
D|-5-5--5--5-5-5-7-|-7-7-7/9-9-----|-5-5--5--5-5-4-|-4-4-4-4-4--4-4-|
A|-3-3--5--5-5-5-5-|-5-5-5/7-7-----|-3-3--5--5-5-2-|-2-2-2-2-2--2-2-|
E|------3--3-3-3---|---------0-----|------3--3-3---|----------------|

SOLOIST
e|----------------|----------------|
B|----------------|----------------|
G|-5h7/9-7--------|----------------|
D|----------9-5-7-|-7-7-7-5-9--7-5-|
A|----------------|----------------|
E|----------------|----------------|

e|------------------------------|---------------------------|
B|-4/5/45/45/45/45/45/4/8-|-8/98/98/98/98/98/98-|
G|------------------------------|---------------------------|
D|------------------------------|---------------------------|
A|------------------------------|---------------------------|
E|------------------------------|---------------------------|

BACKGROUND
e|-----------------|---------0-----|-------------|-------------|
B|-----------------|---------0-----|-------------|-------------|
G|-5-5-----------7-|-7-7-7/9-9-----|-5--5--5--5--|-4--4--4--4--|
D|-5-5--5--5-5-5-7-|-7-7-7/9-9-----|-5--5--5--5--|-4--4--4--4--|
A|-3-3--5--5-5-5-5-|-5-5-5/7-7-----|-3--3--3--3--|-2--2--2--2--|
E|------3--3-3-3---|---------0-----|-------------|-------------|

Chorus:
e|-0-0--0--0-0-0---|---------------|-0-0--0--0-0-0---|---------------|
B|-2-2--0--0-0-0-4-|-4-4-4---5--5--|-2-2--0--0-0-0-4-|-4-4-4---5--5--|
G|-2-2--1--1-1-1-4-|-4-4-4/6-6--6--|-2-2--1--1-1-1-4-|-4-4-4/6-6--6--|
D|-2-2--2--2-2-2-4-|-4-4-4---6--6--|-2-2--2--2-2-2-4-|-4-4-4---6--6--|
A|-0-0--2--2-2-2-2-|-2-2-2---4--4--|-0-0--2--2-2-2-2-|-2-2-2---4--4--|
E|------0--0-0-0---|---------------|------0--0-0-0---|---------------|

Stacy's mom has got it goin on, she's all I want and I've waited for so long

e|-0-0--0--0-0-0-0-|---------------|-----------------|-----------------|
B|-2-2--0--0-0-0-0-|---------5--5--|-----------------|-----------------|
G|-2-2--1--1-1-1-1-|-5-5-5---6--6--|-----------------|-----------------|
D|-2-2--2--2-2-2-2-|-4-4-4/6-6--6--|-7-7-7-7-7-7-7-7-|-9-9-9-9-9-9-9---|
A|-0-0--2--2-2-2-2-|-3-3-3---4--4--|-7-7-7-7-7-7-7-7-|-9-9-9-9-9-9-9---|
E|------0--0-0-0-0-|---------------|-5-5-5-5-5-5-5-5-|-7-7-7-7-7-7-7---|
  
  Stacy can't you see you're just   I know it might be wrong 
      not the girl for me,                      but I'm in love with 
             
e|-0-0--0--0-0-0---|---------------|-0-0--0--0-0-0---|---------------|
B|-2-2--0--0-0-0-4-|-4-4-4---5--5--|-2-2--0--0-0-0-4-|-4-4-4---5--5--|
G|-2-2--1--1-1-1-4-|-4-4-4/6-6--6--|-2-2--1--1-1-1-4-|-4-4-4/6-6--6--|
D|-2-2--2--2-2-2-4-|-4-4-4---6--6--|-2-2--2--2-2-2-4-|-4-4-4---6--6--|
A|-0-0--2--2-2-2-2-|-2-2-2---4--4--|-0-0--2--2-2-2-2-|-2-2-2---4--4--|
E|------0--0-0-0---|---------------|------0--0-0-0---|---------------|

  Stacys mom (a-o-a-h)	       I'm In love with Stacys mom (a-o-a-oh)

e|-0-0--0--0-0-0-0-|---------------|-----------------|-----------------|
B|-2-2--0--0-0-0-0-|---------5--5--|-----------------|-----------7-----|
G|-2-2--1--1-1-1-1-|-5-5-5---6--6--|-----------------|-5-5-5-5-5-7-----|
D|-2-2--2--2-2-2-2-|-4-4-4/6-6--6--|-7-7-7-7-7-7-7-7-|-5-5-5-5-5-5-----|
A|-0-0--2--2-2-2-2-|-3-3-3---4--4--|-7-7-7-7-7-7-7-7-|-3-3-3-3-3-------|
E|------0--0-0-0-0-|---------------|-5-5-5-5-5-5-5-5-|-----------------|
  
  Stacy can't you see you're just   I know it might be wrong 
        not the girl for me, 	but I'm in love with stacys mom
             

/ slide up
/ slide down
h hammer
* palm mute
==========================================================================================


Текст, аккорды и табулатура для песни "Stacys Mom", исполняет "Fountains Of Wayne".
Используемые в песне аккорды можно найти в разделе Как брать аккорды. Аккорды для шестиструнной гитары. Другие песни можно найти на нашем сайте, воспользовавшись алфавитным указателем вверху страницы.


 
Ошибка в тексте? Выделите ошибку и нажмите Ctrl+Enter