Title-Stacy's Mom
Band-Fountains of Wayne
Tabbed by jake dubberstein

b=bend
pm=palm mute
h=hammer on
s=slide

Intro(x6)
 E5       A5           B5        A5            E5
e-------------------------------------------------------------
b-------------------------------------------------------------
g-9-9-9-9--------------------------------------9--------------
D-9-9-9-9--7-7-7-7-7-7--9-9-9-9--7-7-7-7-7-7---9--------------
A-7-7-7-7--7-7-7-7-7-7--9-9-9-9--7-7-7-7-7-7---7--------------
E----------5-5-5-5-5-5--7-7-7-7--5-5-5-5-5-5------------------
pm..........................................

Verse(x4)

E5       A5           B5        A5            E5    A5

e-------------------------------------------------------------
b-------------------------------------------------------------
g-9-9-9-9-----------------------------------------------------
D-9-9-9-9--7-7-7-7-7-7--9-9-9-9--7-7-7-7-7-7---2-2--7-7-7-7---
A-7-7-7-7--7-7-7-7-7-7--9-9-9-9--7-7-7-7-7-7---2-2--7-7-7-7---
E----------5-5-5-5-5-5--7-7-7-7--5-5-5-5-5-5---0-0--5-5-5-5---
pm.......................................................... 
Stacy came I come over......                  (After School)

Pre-chorus(x2)w/dist

e-------------------------------------------------------------
b-------------------------------------------------------------
g-------------------------------------------------------------
D--6-6-6-6-6-6-6-6--7-7-7-7-7-7-7-7---------------------------
A--6-6-6-6-6-6-6-6--7-7-7-7-7-7-7-7---------------------------
E--4-4-4-4-4-4-4-4--5-5-5-5-5-5-5-5---------------------------
I know im not the boy.....

Chorus w/ dist
   E5       A5       B5       C#5
e-------------------------------------------------------------
b-------------------------------------------------------------
g--9-9-9-9----------------------------------------------------
D--9-9-9-9--7-7-7-7--9-9-9-9--11-11-11-11---------------------
A--7-7-7-7--7-7-7-7--9-9-9-9--11-11-11-11--(x2)---------------
E-----------5-5-5-5--7-7-7-7--9--9--9--9----------------------
Stacys mom has.......
  A5     E5       G#5      C#5
e-------------------------------------------------------------
b-------------------------------------------------------------
g---------9-9-9-9---------------------------------------------
D-7-7-7-7-9-9-9-9-6-6-6-6--11-11-11-11------------------------ 
A-7-7-7-7-7-7-7-7-6-6-6-6--11-11-11-11--(x1)------------------
E-5-5-5-5---------4-4-4-4--9--9--9--9-------------------------
Stacy cant you see.......
  A5               B5
e-------------------------------------------------------------
b-------------------------------------------------------------
g-------------------------------------------------------------
D-7-7-7-7-7-7-7-7--9-9-9-9-9-9-9-9----------------------------
A-7-7-7-7-7-7-7-7--9-9-9-9-9-9-9-9--(x1)----------------------
E-5-5-5-5-5-5-5-5--7-7-7-7-7-7-7-7----------------------------
I know it might sound..........

Verse 2(x4)

E5       A5           B5        A5            E5    A5

e-------------------------------------------------------------
b-------------------------------------------------------------
g-9-9-9-9-----------------------------------------------------
D-9-9-9-9--7-7-7-7-7-7--9-9-9-9--7-7-7-7-7-7---2-2--7-7-7-7---
A-7-7-7-7--7-7-7-7-7-7--9-9-9-9--7-7-7-7-7-7---2-2--7-7-7-7---
E----------5-5-5-5-5-5--7-7-7-7--5-5-5-5-5-5---0-0--5-5-5-5---
pm.......................................................... 
Stacy do you remember.....                    (Mowed your lawn)

Fill during Verse 2

e-------------------------------------------------------------
b-------------------------------------------------------------
g-----9-------2-------4--------2------------------------------
D---9--9----2---2---4---4----2---2----------------------------
A-7-------0--------2-------0--------(x4)----------------------
E-------------------------------------------------------------

Solo

e-------------------------------------------------------------
b-------------------------------------------------------------
g--5s7s9-7---------------------5s7s9-7---4h5-4h5-4h5-4h5b-----
D----------5--7-7-7b7b-5-9-7-5---------5----------------------
A-------------------------------------------------------------
E-------------------------------------------------------------

e-------------------------------------------------------------
b-------------------------------------------------------------
g-5s7s9-7---------------------4h5-4h5-4h5-4h5s8h9-8h9-8h9-8h9-
D---------5-7-7-7b7b-5-9-7-5----------------------------------
A-------------------------------------------------------------
E-------------------------------------------------------------

Outro/Last Chorus(Play the whole outro/last chorus twice)
   C   G   D   Em
e--3-3-3-3-3-3-3-3--------------------------------------------
b--3-3-3-3-3-3-3-3--------------------------------------------
g--0-0-0-0-2-2-0-0--------------------------------------------
D--2-2-0-0-0-0-2-2--------------------------------------------
A--3-3-2-2-----2-2-(x3)---------------------------------------
E------3-3-----0-0--------------------------------------------
Stacy's mom whoa whoa........
  C                D
e-3-3-3-3-3-3-3-3--3-3-3-3-3-3-3-3----------------------------
b-3-3-3-3-3-3-3-3--3-3-3-3-3-3-3-3----------------------------
g-0-0-0-0-0-0-0-0--2-2-2-2-2-2-2-2--(x1)----------------------
D-2-2-2-2-2-2-2-2---------------------------------------------
A-3-3-3-3-3-3-3-3---------------------------------------------
E-------------------------------------------------------------
I know it might sound wrong..........

The End


Текст, аккорды и табулатура для песни "Stacys Mom", исполняет "Fountains Of Wayne".
Используемые в песне аккорды можно найти в разделе Как брать аккорды. Аккорды для шестиструнной гитары. Другие песни можно найти на нашем сайте, воспользовавшись алфавитным указателем вверху страницы.


 
Ошибка в тексте? Выделите ошибку и нажмите Ctrl+Enter