Band - For Amusement Only
Song - Strangers
Album - One For The Team
 
Email: [email protected]

+ - Mute
~ - Let Ring

e|-------------------------------------------|
B|-------------------------------------------|
G|-------------------------------------------|
D|-9-9-----9-9-----996-----------------------|
A|-9-9-----9-9-----996--- (x2) --------------|
E|-7-7-----7-7-----764-----------------------|
  
e|--------------------------------------------------|
B|--------------------------------------------------|
G|--------------------------------------------------|
D|-9-9999-9-9999-4-6666-996-------------------------|
A|-9-9999-9-9999-4-6666-996---(x2)------------------|
E|-7-7777-6-6666-4-4444-764-------------------------|
     ++++   ++++   ++++            


Текст, аккорды и табулатура для песни "Strangers", исполняет "For Amusement Only".
Используемые в песне аккорды можно найти в разделе Как брать аккорды. Аккорды для шестиструнной гитары. Другие песни можно найти на нашем сайте, воспользовавшись алфавитным указателем вверху страницы.


 
Ошибка в тексте? Выделите ошибку и нажмите Ctrl+Enter