Foo Fighters - Weenie Beenie
(eBGDGC Tuning)

Weenie Beenie could be tuned BGDBBe

If you have no idea how to do this, here's how.
Tune down the Low E string so when you play the seventh fret,
it sounds the same as the A string. Tune Down the low A string so
it matches the fifth fret on the Low E string which is now a D.
Tune down what is now the D string so it matches the A string which
is now a G when you play the seventh fret.


Intro Riff
e||-------------------||
b||-------------------||
g||-------------------||
d||-------------------||
g||--10-10-10--0-0-0--||
c||--10-10-10--0-0-0--||


Verse
e||------------------|-----------------------|-----------------------||
B||------------------|-----------------------|-----------------------||
G||------------------|-9-10-10-10-9-10-10-10-|-9-10-10-10-9-10-10-9--||
D||------------------|-----------------------|-----------------------||
G||--10-10-10--0-0-0-|-----------------------|-----------------------||
C||--10-10-10--0-0-0-|-----------------------|-----------------------||


Chorus
e||----------------------------||
B||----------------------------||
G||----------------------------||
D||----------------------------||
G||--10-10--8-8-10-8-8-8-10-8--||
C||--10-10--8-8--8-8-8-8--8-8--||


Bridge
e||-------------------------------||
B||-------------------------------||
G||-------------------------------||
D||--------5-------------------3--||
G||--7-6-5-5-5-6-7-5-4-3-0-3-4-3--||
C||--7-6-5---5-6-7-5-4-3-0-3-4----||







____________________________
Foo Fighters - Weenie Beenie
(Normal Tuning)


Intro/Verse
e||------------------|-------------------------|--------------------------||
B||------------------|-------------------------|--------------------------||
G||------------------|-10-11-11-11-10-11-11-11-|-10-11-11-11-10-11-11-10--||
D||--8--8--8--101010-|-------------------------|--------------------------||
G||--10-10-10-0-0-0--|-------------------------|--------------------------||
C||--10-10-10-0-0-0--|-------------------------|--------------------------||

Chorus
e||----------------||
B||----------------||
G||----------------||
D||--8---8--8---6--||
G||--10-10-10-8----||
C||--10-10-10-8----||


Bridge
e||-----------------------------------||
B||-----------------------------------||
G||-----------------------------------||
D||--------5---------------3----------||
G||--5-6-7-5-7-6-5-0-3-5-3-3-5-4-3-0--||
C||--5-6-7---7-6-5-0-3-5---3-5-4-3-0--||


Intro/Verse
e||-------------------------|------------------|-------------------||
B||-------------------------|-5-6-6-6--5-6-6-6-|-5-6-6-6--5-6-6-5--||
G||--3---3---3---5----5---5-|------------------|-------------------||
D||--3---3---3---5----5---5-|------------------|-------------------||
A||--1---1---1---3----3---3-|------------------|-------------------||
E||--------------3----3---3-|------------------|-------------------||


Chorus
e||------------------------------------------------||
B||------------------------------------------------||
G||------------------------------------------------||
D||--6--6--6--6---6--6--6--6---6--6--6--6---8---8--||
A||--6--6--6--6---6--6--6--6---6--6--6--6---8---8--||
E||--4--4--4--4---4--4--4--4---4--4--4--4---6---6--||


Bridge
e||--------------------------------|---------------------------||
B||--------------------------------|---------------------------||
G||--------------------------------|---------------------------||
D||--------------3-----------------|---------1-----------------||
A||--------------3-----------------|---------1-----------------||
E||--1---2---3-------3---2---1---0-|-1---2----------3---2---1--||


Текст, аккорды и табулатура для песни "Weenie Beenie", исполняет "Foo Fighters".
Используемые в песне аккорды можно найти в разделе Как брать аккорды. Аккорды для шестиструнной гитары. Другие песни можно найти на нашем сайте, воспользовавшись алфавитным указателем вверху страницы.


 
Ошибка в тексте? Выделите ошибку и нажмите Ctrl+Enter